Green River
Creedence Clearwater Rivival
Tab by:[email protected]
INTRO: /=slide up =slide down h=hammer r=rake(pull-off) v=vibrate b=bend
-----------------------------------------------------------------|
-----2/3-3-3-3---3-3-3-3-----------------------------------------|
-----3/4-4-4-4---4-4-4-4--2--0-----------------------------------|
--------------------------------0h2-2-0----0--2-2-2-0------------|
----------------------------------------2-------------2-0--------|
--0-------------------------------------------------------3b--0--|
( repeat )
well take me back down where cool waters flow
-----------------------------------------------|
-----------------------------------------------|
-----------------------------------------------|
------------------2---2--------------------2---|
--2---4---2---4-----------5---4---2------------|
--0---0---0---0---0---0---0---0---0---3h4-----0|
------------------------------------------|
-2/3-3-3-3---3-3-3-3----------------------|
-3/4-4-4-4---4-4-4-4---2---0--------------|
-------------------------------2---0------|
---------------------------------------2--|
---------------------------------------0--|
( repeat sequence for next verse )
alternate intro: ( fancier )
-----0-0-0-0-0---0-0-0-0-0--------------------------------------------|
-----2/3-3-3-3---2/3-3-3-3--------------------------------------------|
-----3/3-4-4-4---3/4-4-4-4--0h2h3r2r0---------------------------------|
---------------------------------------2-0-2-2-0-----0-2-2-2-0--------|
-------------------------------------------------0h2-----------2-0----|
--0----------------------------------------------------------------3b0|
bRIDGE BETWEEN THE VERSE AND INTRO RUN INTO THE 2ND VERSE:
|------0|-----------|
|--4/5--|-2/3-3-3-3-|
|--3/4--|-3/4-4-4-4-|
|-------|-----------|
|-------|-----------|
|-------|-----------|
Just before the lead:
WELL
----------------| The lead in this song is pretty
----------------| basic and quite frankly, rather
--9-7-----------| plain. Below you'll find my own
------9-7-------| lead for this song which should
----------10-7--| immediately follow the run shown
----------------| on the left.
b=bend h=hammer r=rake /=slide up =slide down v=vibrate
I wrote this in small increments to understand it more easily
E E E E
-12--12-|-12-----------------|-12--12-|-12-----------------|
-15b-15b|-15b-12-------------|-15b-15b|-15b-12-------------|
--------|--------14b-------12|--------|--------14b-------12|
--------|------------12h14---|--------|------------12h14---|
--------|--------------------|--------|--------------------|
--------|--------------------|--------|--------------------|
b*=bend up and hold b$=release bend from b*
E
---------------------------------------|
------12-------------------------------|
-11b*----11b$--9h11r9---------9--------|
----------------------11-9-11---11-9---|
-------------------------------------11|
---------------------------------------|
E E
------------------------------|-----------------------------|
------------------------------|----------12--14r12----12--14|
---------------9--11r9----9-11|-9--11/13-----------13-------|
------9---9h11---------11-----|-----------------------------|
-9h11-------------------------|-----------------------------|
------------------------------|-----------------------------|

C A B
--8--8---8--------------|-5-----------------------------------8----|
--8--8----8-------------|-5----------------------------8-8h10---10v|
--7--7b*--7b$--5h7r5----|---7--5-----------------5-7/9-------------|
---------------------7-5|---------7--5-----5--7--------------------|
------------------------|---------------7--------------------------|
------------------------|------------------------------------------|
E
---------------|
-----2/3-3-3-3-|
-----3/4-4-4-4-| Return to the intro.
---------------|
---------------|
--0------------|
Any questions, comments, or complaints, feel free to
E-mail me or post a thread at this sight.




Ваше мнение



Капча