E: Fri, 24 Apr 1998 15:44:51 PDT
From: Steve Garner
Subject: c/creedence_clearwater_revival/good_golly_miss_molly.tab

GOOD GOLLY MISS MOLLY
Creedence Clearwater Revival

From the album "Bayou Country"

Transcribed by Steve Garner

Main Riff:
|--------------------------------------------------------|
|--------------------------------------------------------|
|--------------------------------------------------------|
|--------1-1----------1-1----------1-1----------1-1------|
|------3-----3------3-----3------3-----3------3-----3----|
|--1-1----------1-1----------1-1----------1-1------------|

|--------------------------------------------------------|
|--------------------------------------------------------|
|--------1-1----------1-1--------------------------------|
|------3-----3------3-----3--------1-1----------1-1------|
|--1-1----------1-1--------------3-----3------3-----1----|
|----------------------------1-1----------1-1------------|

|--------------------------------------------------------|
|--------------------------------------------------------|
|--------3-3----------1-1--------------------------------|
|------5-----5------3-----3--------1-1-------------------|
|--3-3----------1-1--------------3-----3-----------------|
|----------------------------1-1---------1---------------|

Fill #1 Fill #2
|-------------------------|------------------------------|
|-------------------------|------------------------------|
|-------------------------|--10--13--15--17--15--13--10--|
|-------------------------|------------------------------|
|--------1--3--1----------|------------------------------|
|--1--4-----------4--1----|------------------------------|

Lick #1 Lick #2
|--------------------|--------------------------|




Ваше мнение



Капча