born on the bayou

intro
-----0-----0-----0-----0---|
-------3-----3-----3-----3-|
---1-----1-----1-----1-----|
-2-------------------------|
---------------------------|
---------------------------|

E7
(1)now when i was just a little boy
(2)i can remember the fourth of july
wish i was back on the bayou

standing to my daddies knee
running through the backwood bare
rollin with some cajun queen

my poppa said son dont let the man
and i can still hear my old hound dog barkin
wishin i was a fast freight train

get you and do what he done to me
chasing down a hoodoo there chasing down a hoodoo there
just a chooglin on down to new orleans

E7 D6 A
born on the bayou
born on the bayou
born on the bayou

solo

------------------------------------------------------------------0---------------------------|
----------------------------------------------------3-----------3-----------------------------|
-2----2h1-2h1-2h1-2h1-2h1-2h1---1-2h1-2h1---1-2-2s4---4s2-1-2s4-----4s2-1-2h1-2h1-2h1-2h1-----|
------------------------------2-----------2-----------------------------------------------2-2-|
----------------------------------------------------------------------------------------------|
----------------------------------------------------------------------------------------------|

---------------------------------------------5-----------------------------------|
-7s9-9---9-7---7--5---5-7------7s9-9---9-7-----9-7-9-----7s9-9---9-7---7-5-5-9-5-|
---------------------------------------------------------------------------------|
-7s9---9-9-7-7-7--6-6-6-7-7-7--7s9-9-7-9-7-7-7-9-7-9-9-9-7s9-9-9-9-7-7-7-6-6-9-6-|
---------------------------------------------------------------------------------|
---------------------------------------------------------------------------------|
3x
--------------4----------- --------------|
-7--7--5-5--5-----7---5--- -3--3--2-2--0-|
-7--7--6-6--4------------- -2--2--2-2--1-|
-7--7--7-7--6---6---6---6- -4--4--2-2--2-|
-------------------------- --------------|
-------------------------- --------------|

----------------------|
----------------------|
----------------------|
-2------2---------2---|
----2h4-------2-4---4-|
----------0-----------|




Ваше мнение



Капча