Artist: Creed
Title: Young Grow Old
Album: Human Clay
Tuning: Drop D (DADBGE)
Tabbed By: Justin Macdonald
E-mail: [email protected]
Intro W/Distortion
------------------------------------------------------
------------------------------------------------------
------------------------8-7-7-7-8-7-7-7-8-7-7-7-------
--1p0-0-0-1p0-0-0-1p0---x-x-x-x-x-x-x-x-x-x-x-x ------
--1p0-0-0-1p0-0-0-1p0---6\5-5-5-6\5-5-5-6\5-5-5-------
--1p0-0-0-1p0-0-0-1p0---------------------------------
------------------------------------------------------
------------------------------------------------------
---------7\9\12---5/9-----4/7-------------------------
---3p0---x-x-x----x-x-----x-x-------------------------
---3p0---5\7\10---3/7-----2/5-------------------------
---3p0------------------------------------------------
Verse W/Distortion
----------------------------------------------------
----------------------------------------------------
----------------------------------------------------
---3p0--------------------------0-0-0-0---3p0-3p0---
---3p0---Let-it-ring------------0-0-0-0---3p0-3p0---
---3p0--------------------------0-0-0-0---3p0-3p0---
B * * * * b b
---------------------------------|-----------------------------
-------------------13-13-15-15---|-----------------------------
-------------------12-12-14-14---|----5--4--3---------------0--
---0-0-0-0-0-0-0-0-0--0--0--0----|----5--4--3-Pick-scrape---0--
---0-0-0-0-0-0-0-0-0--0--0--0----|----3--2--1---------------0--
---0-0-0-0-0-0-0-0-0--0--0--0----|-----------------------------
Chorus W/Distortion
-----------------------------------------------------------------------
-----------------------------------------------------------16\15-15-15-
---------------------------------8\7-7-7-8\7-7-7-8-7-7-7---x--x---x--x-
---1p0-0-0---1p0-0-0---1p0-0-0---x-x-x-x-x-x-x-x-x-x-x-x---13\12-12-12-
---1p0-0-0---1p0-0-0---1p0-0-0---6\5-5-5-6\5-5-5-6\5-5-5---------------
---1p0-0-0---1p0-0-0---1p0-0-0-----------------------------------------




Ваше мнение



Капча