Song- Young Grow Old
Written by- Creed
Transcribed by- Fernando Delgado
Tuning- DADGBe
Its easy try it Thanks to Rage man you rules!!!
Intro
e----------------------------------------------------------
B------------------------13--------------------------------
G------5-5-4--4-4-3------12--10-10-12p10----10-10----10-10-
D--0-0-5-5-4--4-4-3---0------------------12-------12-------
A--0-0-3-3-2--2-2-1---0------------------------------------
D--0-0----------------0------------------------------------
Play 2x
e----------------------------|-----------------------------
B--12------------------------|-----------------------------
G------5-5-4--4-4-3--3-3-3-3-|---7----910-12----57-9-----
D------5-5-4--4-4-3--3-3-3-3-|-0-x-00-x-x--x--00-x-x-x-00--
A------3-3-2--2-2-1--1-1-1-1-|-0-5-00-78--10-00-35-7-00--
D----------------------------|-0---00---------00-------00--
2nd Time
e-------|--------
B-------|--------
G-45-7-|--------
D-x-x-x-|---3-0--
A-23-5-|---3-0--
D-------|---3-0--
e-----------|----------------------------------------------
B-----------|------------------13-13-13-15-15-15-15--------
G-----------|------------------12-12-12-14-14-14-14--5-5-4-
D--0-3-3p0--|------------0-0-0-0--0--0--0--0--0--0---5-5-4-
A--0-3------|----------0-0-0-0-0--0--0--0--0--0--0---3-3-2-
D--0-3------|--0-0-0-0-0-0-0-0-0--0--0--0--0--0--0---------
E-------------
B-------------
G--4-4-3------
D--4-4-3---0--
A--2-2-1---0--
D----------0--
Chorus
e----------------------------------------------------------
B--------------------------------------------------1615---
G--------------------------87-7-7-87-7-7-87-7-7-x--x----
D--1p0-0-0-1p0-0-0-1p0-0-0-x-x-x-x-x-x-x-x-x-x-x-x-1312---
A--1p0-0-0-1p0-0-0-1p0-0-0-65-5-5-65-5-5-65-5-5---------
D--1p0-0-0-1p0-0-0-1p0-0-0---------------------------------

Rage=friend
Play 4x
e--------------------------------|-------------------------
B--15-15-1615-15-15-1615-15-15-|-------------------------
G--x--x--x--x--x--x--x--x--x--x--|---7----910-12----57-9-
D--12-12-1312-12-12-1312-12-12-|-0-x-00-x-x--x--00-x-x-x-
A--------------------------------|-0-5-00-78--10-00-35-7-
D--------------------------------|-0---00---------00-------
e---------------
B---------------
G------45-7----
D--00--x-x-x----
A--00--23-5----
D--00-----------
e------------------|---------
B------------------|---------
G------------------|---------
D--0-3p0-----------|--0-3p0--
A------------------|--------- Rage=Friend
D-----------0-3p0--|---------
After 2nd Chorus
e----------------------------------------------------------
B--------------------------------------------------1615---
G--------------------------87-7-7-87-7-7-87-7-7-x--x----
D--1p0-0-0-1p0-0-0-1p0-0-0-x-x-x-x-x-x-x-x-x-x-x-x-1312---
A--1p0-0-0-1p0-0-0-1p0-0-0-65-5-5-65-5-5-65-5-5---------
D--1p0-0-0-1p0-0-0-1p0-0-0---------------------------------
Play 6x
e--------------------------------|-------------------------
B--15-15-1615-15-15-1615-15-15-|-------------------------
G--x--x--x--x--x--x--x--x--x--x--|-------------------------
D--12-12-1312-12-12-1312-12-12-|-------8-------7---5-----
A--------------------------------|-5-5-5-5-5-5-5-5-5-5-5-5-
D--------------------------------|-0-0-0---0-0-0---0---0-0-
| Play 2x Strum Softly | Play 5x
e--------------|-------------------------------|-----------
B--------------|-------------------------------|-----------
G--------------|-------------------------------|-5-5-4-4-4-
D--4-----4-----|-8-8-8-7-7-7-5-4-4-4-4-4-4-4---|-5-5-4-4-4-
A--5-5-5-5-5-5-|-5-5-5-5-5-5-5-5-5-5-5-5-5-5-5-|-3-3-2-2-2-
D----0-0---0-0-|-0-0-0-0-0-0-0-0-0-0-0-0-0-0-0-|-----------
e-----------------------------
B-----------------------------
G--3-87-7-7-87-7-7-87-7-7--
D--3-x-x-x-x-x-x-x-x-x-x-x-x--
A--1-65-5-5-65-5-5-56-5-5-- Rage=Friend
D-----------------------------
Play 2x
e-------------------------------------------
B-------------------------------------------
G--------------0----------------------------
D--0-0-0-0-2-3---0-0---0-2-0-0-----0-0------
A--0---0-0-------0-0-3-----0-0-2-3---0------
D--0---0-0-------0-0-------0-0-------0-3p0--




Ваше мнение



Капча