-----------------------------------------------------------
WITH ARMS WIDE OPEN (Intro) - Creed
------------------------------------------------------------

By: IcEmAn

Tuning: Drop D (DADGBe)

Comments: This tab is Undoubtedly 100% Correct

============================================================

e|----------------------------------------------------------
B|0h1-1-1---1h3--1--0h1p0-0h1-1--1---1h3---0h1p0------------
G|-----0-0-----0--0------------0--0-----0-------------------
D|----------------------------------------------------------
A|3-----3-3-3---3--3------2-----2--2-2---2------------------
D|----------------------------------------------------------

e|----------------------------------------------------------
B|-0h1-1--1---0h1p0-0h1-1--1--0h1p0-------------------------
G|------0--0-------------0--0-------------------------------
D|----------------------------------------------------------
A|-0-----0--0-------0-----0--0------------------------------
D|----------------------------------------------------------

REPEAT




Ваше мнение



Капча