Creed - Who's Got My Back Now - Weathered

Tabbed by Elvisz ([email protected])

Intro:
|-------------------------12-10---------------------------------------------|
|-11--11-12-14-14-15-14---------14-12-14-12---7-/12-11-9-9/11-12-11---12---|
|---------------------------------------------------------------------------|
|---------------------------------------------------------------------------|
|---------------------------------------------------------------------------|
|---------------------------------------------------------------------------|

|---------------------------12-10------------------|
|12-11--11-12-14-14-15-14---------14-12-14-12---7-|
|--------------------------------------------------|
|--------------------------------------------------|
|--------------------------------------------------|
|--------------------------------------------------|

|-------------------------12-10-------------|
|-11--11-12-14-14-15-14---------14-12-14-12-|
|-------------------------------------------|
|-------------------------------------------|
|-------------------------------------------|
|-------------------------------------------|

|-------------------------12-10---------------------------------------------|
|-11--11-12-14-14-15-14---------14-12-14-12---7-/12-11-9-9/11-12-11---12---|
|---------------------------------------------------------------------------|
|---------------------------------------------------------------------------|
|---------------------------------------------------------------------------|
|---------------------------------------------------------------------------|

|--------|
|-11--12-|
|--------|
|--------|
|--------|
|--------|




Ваше мнение



Капча