Title:Who's Got My Back
Artist:Creed
CD:Weathered
Tuning:Drop D
Tabbed By:Jason Beamon
/=slide up
\=slide down
X=mute
X3=repeat 3 times
Intro/Verse:
E:----------------------------------------------------------------------------
B:-7--7-8--10-10--11-10--/13-11-10-8-10-8---\1--/8--7-5-5h7--8-7--8---8-7-----
G:----------------------------------------------------------------------------
D:----------------------------------------------------------------------------
A:----------------------------------------------------------------------------
D:----------------------------------------------------------------------------
Chorus 1:Clean(Strum)
E:----------------------------------------------------------------------------
B:----------------------------------------------------------------------------
G:----------------------------------------------------------------------------
D:-4------4h5------5/7--5\4------4------5------/10-9-7-5-7-5------------------
A:-0------0-0------0-0--0-0------0------0-------0--0-0-0-0-0------------------
D:-0------0-0------0-0--0-0------0------0-------0--0-0-0-0-0------------------
E:----------------------------------------------------------------------------
B:----------------------------------------------------------------------------
G:----------------------------------------------------------------------------
D:------5-4-2-2h4--5-4--------------------------------------------------------
A:-3----0-0-0-0-0--0-0--------------------------------------------------------
D:-0----0-0-0-0-0--0-0--------------------------------------------------------
(Back To Intro/Verse)
Chorus 2:Distorted (Strum)
E:-x--x-x--x--x---x--x----x--x--x--x-x--x----x---x--x-x-x-x--x-x--x---x-x-----
B:-7--7-8--10-10--11-10--/13-11-10-8-10-8---\1--/8--7-5-5h7--8-7--8---8-7-----
G:-x--x-x--x--x---x--x----x--x--x--x-x--x----x---x--x-x-x-x--x-x--x---x-x-----
D:-0--0-0--0--0---0--0----0--0--0--0-0--0----0---0--0-0-0-0--0-0--0---0-0-----
A:-0--0-0--0--0---0--0----0--0--0--0-0--0----0---0--0-0-0-0--0-0--0---0-0-----
D:-0--0-0--0--0---0--0----0--0--0--0-0--0----0---0--0-0-0-0--0-0--0---0-0-----
Bridge:
E:----------------------------------------------------------------------------
B:-7-8-10--8-10-11--8-7-(X3)-7-8-10--8-10-11--8-7-\1---8-7-5-5h7--------------
G:----------------------------------------------------------------------------
D:----------------------------------------------------------------------------
A:----------------------------------------------------------------------------
D:----------------------------------------------------------------------------
Back to Chorus, Fade out on Bridge
This is my first tab, any corrections are welcome.




Ваше мнение



Капча