here it is hope yall like it

P= pull off
H= hammer on

verse-
--3--------3p2------2--------3------
--3------3----3-----2----------3----
--0----2-------2----4-----5-----5---
--0--0--------------4----5--------5-
--2-----------------2---3-----------
3-----------------------------------

couse is the same cords only not broke up

ending
-3---3----5------
-3---3----5------
-4---5----7------
-5---5----7------
-5---3----5------
-3--------------- listin to the song for the rythem




Ваше мнение



Капча