Artist: Creed
Song: What's Life This For
Album: My Own Prison
Written by: Mark Tremonti
Tabbed by: Drew Montgomery
E-mail: [email protected]
Tuning: standard(E-A-D-G-B-E)

This is a classic Creed song and one of the best
reality songs ever. God bless and rock on!!!

Intro/Verse(clean)

E|--3-3-0--------2-2h3p2------------2-2--------3----------|
B|--3-3--------3---------3----------2-2----------3--------|
G|--0-0------2-------------0------4-4-4------5-----5------|
D|--0-0----0--------------------4---4-4----5---------0----|
A|--2-2-----------------------2----------3----------------|
E|--3-3---------------------------------------------------|

E|--------3-0-------2-2h3p2------------2-2--------3-------|
B|--------3-------3---------3----------2-2----------3-----|
G|--------0-----2-------------0------4-4-4------5-----5---|
D|------0-----0--------------------4---4-4----5---------0-|
A|----2--------------------------2----------3-------------|
E|--3-----------------------------------------------------|

Chorus(distortion)

E|--------------------------------------------------------|
B|--0-0-0-0-0-0-0-0-0-0-----------------------------------|
G|--0-0-0-0-0-0-0-0-0-0---------4-4-4-4-4-4-7-7-7-7-7-7---|
D|--0-0-0-0-0-0-0-0-0-0---------5-5-5-5-5-5-7-7-7-7-7-7---|
A|--2-2-2-2-3-3-3-3-3-3--3h7p5--5-5-5-5-5-5-5-5-5-5-5-5---|
E|------------------------------3-3-3-3-3-3---------------|

E|--------------------------------------------------------|
B|--------------------------------------------------------|
G|--4-4-4-4-4-4-5-5-5-5-5-5-------------------------------|
D|--4-4-4-4-4-4-5-5-5-5-5-5-------------------------------|
A|--2-2-2-2-2-2-3-3-3-3-3-3-------------------------------|
E|--------------------------------------------------------|

Outro(clean)-(distortion)

E|--3-3-3-3-3-3-3-3-3-3-3-3-3-0-0-0-0-0-0-0-0-0---0-0-----|
B|--3-3-3-3-3-3-3-3-3-3-3-3-3-1-1-1-1-0-0-0-0-1p0-0-0-----|
G|--0-0-0-0-0-0-0-0-0-0-0-0-0-0-0-0-0-0-0-0-0-0---0-0-----|
D|--0-0-0-0-0-0-0-0-0-0-0-0-0-2-2-2-2-2-2-2-2-2---2-2-----|
A|--2-2-2-2-2-2-2-2-2-2-2-2-2-3-3-3-3-3-3-3-3-3---3-3-----|
E|--3-3-3-3-3-3-3-3-3-3-3-3-3-----------------------------|

E|--0-0-0-0-0-0-0-0-0-0---0-2-2-2-2-3-3-3-3-3-3p2-2-2-----|
B|--1-1-1-1-1-0-0-0-0-1p0-0-3-3-3-3-3-3-3-3-3-3---3-3-----|
G|--2-2-2-2-2-2-2-2-2-2---2-2-2-2-2-2-2-2-2-2-2---2-2-----|
D|--2-2-2-2-2-2-2-2-2-2---2-0-0-0-0-0-0-0-0-0-0---0-0-----|
A|--0-0-0-0-0-0-0-0-0-0---0-------------------------------|
E|--------------------------------------------------------|

E|--0-0-0-0-0-0-0-0-0-0-0-0-0-0---3-----------------------|
B|--1-1-1-1-1-1-1-1-1-1-1-1-1-1---3-----------------------|
G|--0-0-0-0-0-0-0-0-0-0-0-0-0-0---0-----------------------|
D|--2-2-2-2-2-2-2-2-2-2-2-2-2-2---0-----------------------|
A|--3-3-3-3-3-3-3-3-3-3-3-3-3-3---2-----------------------|
E|--------------------------------3-----------------------|
end with this^^^^^^^^^^^^^^^^^^^^^^^^^^^^^^^^^^^^^^^^^^^

That's it for one of Creed's best!!!




Ваше мнение



Капча