T. See http://www.olga.net/faq/ for more information. #
Date: Sat, 8 Apr 2000 16:30:24 -0400
From: [email protected]
Subject: c/creed/what_if.tab
Song- What If
Album- Human Clay
Written by- Creed
Transcribed by- Eric DiRezze
Tuning- DADGBe

Intro.(Clean Tone)
E--------------5------3------1------------1----0-----------0--
B---------5--6---6--5---5--3---3--------3----3---3-------3----
G------7-------------------------1----1------------0---0------
D---/7--------------------------------------------------------
A------------5------0------1--------1--------0-------0--------
D-------------------------------------------------------------
E----0---------------------5-------3-------1------------1--
B--2---2--------------5--6---6---5---5---3---3--------3----
G--------0---------7---------------------------1----1------
D---------------/7-----------------------------------------
A--0-------0-------------5-----0-0-----0-1--------1--------
D----------------------------------------------------------
E----0-----------0----0-----------0---------------------------
B--3---3-------3----2---2-------2-----3~-3---3~2h3--5p3p2p0h2-
G--------0---0------------0---0-------------------------------
D-------------------------------------------------------------
A--0-------0--------0-------0---------1~-1---0~-0~--0---------
D-------------------------------------------------------------

Play softly (no pick...)
3 TIMES
E--------------------------------
B--------------------------------
G--------------------------------
D--------------------0-0-2-2-0---
A------------0h3h5-0-1-1-1-1-1---
D--0---0h3h5-------0-0-0-0-0-0---
4th TIME |(Distortion In)
E--------------------|-----------------
B--------------------|---[Harmonic]----
G--------------------|-------|---------
D--------------------|-0x----|---------
A------------0h3h5/----0x--- | --------
D--0---0h3h5-----------0x--- 3* -------
*Harmonic is played 2/3 the way up the third fret on the low D string - the
Note is a C.

VERSE
8 TIMES




Ваше мнение



Капча