Author/Artist: Creed
Title: Weathered
Album: Weathered
Tuning: DADADD (low to high)
Transcribed by: Jonathan
Email: [email protected]
Notes:
Verse - It is finger picked. I tried to get it as close as I could.
There might be a couple notes that I missed since he pick the notes fast.
But I put down the basic layout.
Chorus - This is pretty close. A lot closer than my last tab. Just listen to
The song for when to play each chord.
Bridge - Just some octave riffs . . . sounds like some Zeppelin influence.
Other - There are a lot of fills in this song. I tried to add as many as I could.
Anything else you want to know you can email me.
Intro/Verse -
------------------------------------0-----------------------------------------|
-3p0--0------------------3-0-----------0-----0--------------------0h2-2/3-2-0-|
---------0--------------------0-----------0-----------------------------------|
------------0--------------------0--------------------------------------------|
-3-------------3--2---2---------------------------5--7/9\7--5-----------------|
---------------------------------------------------------------0--------------|
--------------------------------------0---------------------------------7^--|
-3p0--0------------------3--0------------0-----0--------------------7^--7^--|
---------0---------------------0------------0-----------------------7^--7^--|
------------0----------------------0--------------------------------7^------|
-3-------------3--2---2-----------------------------5--7/9\7--5-------------|
-----------------------------------------------------------------0----------|
Verse -
----------------------------------0-------------------------------------------|
-3p0--0------------------0-----------0-----0h3-------------------0h2-2/3-2-0--|
---------0------------------0-----------0-------------------------------------|
------------0------------------0----------------------------------------------|
-3-------------3--2---2-------------------------5--7/9\7--5-------------------|
--------------------------------------------------------------0---------------|
Play this at 0:54 \"Maybe I can\'t accept the life that\'s mine . . .\"
----------------------------------0-------------------------------------|
-3p0--0------------------0-----------0-----0h3--------------------------|
---------0------------------0-----------0-------------------------------|
------------0------------------0---------------------------------5^-5^--|
-3-------------3--2---2-------------------------5--7/9\7--5-------------|
--------------------------------------------------------------0---------|
Going into first chorus -
---------|
---------|
---------| with distortion (in at 1:31)
-3h5-----|
------5--|
---------|
Chorus - \"Me . . .I rusted and weathered . . . \"
----------------------------------------|
----------------------------------------|
----5-5-5-5-5---------------------------|
-0--0-0-0-0-0--0--3-3--0--3-3-3-3-3--0--|
-0--0-0-0-0-0--0--1-1--0--3-3-3-3-3--0--|
-0--0-0-0-0-0--0-------0--3-3-3-3-3--0--|
\"Barely holding together . . .\"
-------------------------------|
-------------------------------|
---3/5--5----------------------|
0----------0--5-5-5-5-5-5-5-5--|
0--3/5--5--0--5-5-5-5-5-5-5-5--|
0----------0--5-5-5-5-5-5-5-5--|
\"I\'m covered in skin . . . . . . . . that peals and it just . . . . .\"
-------------------------------------|--------------------------------------|




Ваше мнение



Капча