Artist: Creed
Song: Wash Away Those Years
Album: Human Clay
Tabbed By: Justin Macdonald
E-mail: [email protected]
12:41 9/02/02
Intro
Clean
E ------------------------------------------------------------------------------
B ---6-6-6-5--5h6-5h6-5h6p5--3-----3-3h5-3h5-3h5-3-22/3-3-----------------------
G ------------------------------------------------------------------------------
D ------------------------------------------------------------------------------
A ------------------------------------------------------------------------------
D ------------------------------------------------------------------------------
Clean Play this 2 times
E ------------------------------------------------------------------------------
B ------------------------------------------------------------------------6-6-5-
G -5-5-5--5--5-5-5-5-xx-4-4-4--4--4-4-4-4-xx-7-7-7--7--7-7-7-xx-6-6-6/5-4-------
D -3-3-3--3--3-3-3-3-xx-2-2-2--2--2-2-2-2-xx-5-5-5--5--5-5-5-xx-4-4-4/5-4-------
A -3-3-3--3--3-3-3-3-xx-2-2-2--2--2-2-2-2-xx-5-5-5--5--5-5-5-xx-4-4-4/5-4-------
D -3-3-3--3--3-3-3-3-xx-2-2-2--2--2-2-2-2-xx-5-5-5--5--5-5-5-xx-4-4-4/5-4-------
Play this last time
E --------------------------
B --------------------------
G --------------------------
D -----3----------2---------
A -----3----------2---------
D -----3----------2---------
Clean
E ---------------------------------------------------------------------------
B --6-6-6-5-5h6-5h6-5h6p5---3----3h5-3h5-3h5-3-22/3--------------------------
G ---------------------------------------------------------------------------
D ---------------------------------------------------------------------------
A ---------------------------------------------------------------------------
D ---------------------------------------------------------------------------
W/Distortion Chorus play this 4 Times
E ------------------------------------------------------------------------------
B ------------------------------------------------------------------------6-6-5-
G ------------------------------------------------------------------------------
D -3-3-3--3--3-3-3-3-xx-2-2-2--2--2-2-2-2-xx-5-5-5--5--5-5-5-xx-4-4-4h5-4-------
A -3-3-3--3--3-3-3-3-xx-2-2-2--2--2-2-2-2-xx-5-5-5--5--5-5-5-xx-4-4-4h5-4-------
D -3-3-3--3--3-3-3-3-xx-2-2-2--2--2-2-2-2-xx-5-5-5--5--5-5-5-xx-4-4-4h5-4-------
Let Ring
E --------------------------
B --------------------------
G --------------------------
D --3----0----5-------------
A --3----0----5-------------
D --3----0----5-------------
Solo/Bridge:
Play this 3 times:
E-------------------------------------------------------------------------------
B-------------------------------------------------------------------------------
G------------12-10-8------------------------------------------------------------
D--8--8--8-8---------12-10-8-8--8-8-8-10-8-8--10--10--10-10-12-10----------12---
A--8--8--8-8-----------------8--8-8--------8--10--10--10-10-------13-12-12-12-13
D--8--8--8-8-----------------8--8-8--------8--10--10--10-10----------------12---
Then play this once:
E ------------------------------- -------------------------------------------
B ------------------------------- -------------------------------------------
G ------------------------------- -------------------------------------------
D ------------------------------- --12--12-13-12h113p12--12--12-13-12h13p12--
A -12h13p12---------------------- --12-------------------12------------------
D ------------------------------- --12-------------------12------------------
W/ Distortion Chorus Play 4 Times
E ------------------------------------------------------------------------------
B ------------------------------------------------------------------------6-6-5-
G ------------------------------------------------------------------------------
D -3-3-3--3--3-3-3-3-xx-2-2-2--2--2-2-2-2-xx-5-5-5--5--5-5-5-xx-4-4-4h5-4-------
A -3-3-3--3--3-3-3-3-xx-2-2-2--2--2-2-2-2-xx-5-5-5--5--5-5-5-xx-4-4-4h5-4-------
D -3-3-3--3--3-3-3-3-xx-2-2-2--2--2-2-2-2-xx-5-5-5--5--5-5-5-xx-4-4-4h5-4-------
E --------------------------
B --------------------------
G --------------------------
D --3----0----5-------------
A --3----0----5-------------
D --3----0----5-------------




Ваше мнение



Капча