Song- Unforgiven
Written by- Creed
Transcribed :Fernando Delgado
Tuning- DADGBe



e----------|-------------------------------------------------
B----------|-------------------------------------------------
G----------|-------------------------------------------------
D----------|------------0h6---0-----0--0---------0h6---0-----
A-0-0-12/--|-0--0-0-0h6-----0-0-0h6----0-0-0-0h6-----0-0-6-5-
E-0-0-12/--|-0--0-0---------0-0--------0-0-0---------0-0-6-5-


e--------------------------------------------------------------
B--------------------------------------------------------------
G--------------------------------------------------------------
D---------------0h6---0-----0--0---------0h6---0---------------
A--0-3(b)0--0h6-----0-0-0h6----0-----0h6-----0-0---6-5-0-3(b)0-
D--0-3(b)0----------0-0--------0-0-0---------0-0-0-6-5-0-3(b)0-


e-------------------------------------------------------------
B-------------------------------------------------------------
G-------------------------------------------------------------
D------0h3---------0------------0h3---------0------------0h3--
A--0h3-----0-0-0h3----0-----0h3-----0-0-0h3----0-----0h3------
D----------0-0--------0-0-0---------0-0--------0-0-0----------


e-------------------------------------|
B-------------------------------------|
G-------------------------------------|
D----------0-----------0h3---------0--|
A--0-0-0h3---0-----0h3-----0-0-0h3----|
D--0-0-------0-0-0---------0-0--------|


Verse (in at 0:18sec.)
Play 3x | 4th Time
e---------------------------|--------------------------------
B---------------------------|--------------------------------
G---------------------------|--------------------------------
D-----------0h6----------0--|-----------0h6------------------
A-------0h6----------0h6----|-------0h6----------6-5-0-3(b)0-
D--0000---------0000--------|--0000---------0000-6-5-0-3(b)0-











(3x)
e---------------------------|
B---------------------------|
G---------------------------|

D------0h6----------0-------|
A--0h6----------0h6---------|
D----------0000-------0000--|


Chorus
e-----------------------|---------------|---------|----------|
B-----------------------|---------------|---------|----------|
G--5-----4-----3--------|--8-8----------|--Verse--|--Chorus--|
D--3-----2-----1-----0--|--8-8----------|---------|----------|
A--3-----2-----1-----0-----6-6-------5--|---------|----------|
D--3-----2-----1-----0---------0-5h7(0)-|---------|----------|


Breakdown Riff (@ 1:43)
e-------------------------------------------------------------
B-------------------------------------------------------------
G-------------------------------------------------------------
D--0---------0h6----------0--0---------0h6----0---------------
A--0-0-0-0h6----------0h6----0-0-0-0h6------0-0-0-6-5-0-3(b)0-
D--0-0-0---------0000--------0-0-0----------0-0-0-6-5-0-3(b)0-


e--------------------------------------------------------
B--------------------------------------------------------
G--------------------------------------------------------
D-----0h6----------0------------0h6----0-----------------
A-0h6----------0h6----0-----0h6------0-0-0-6-5-0-3(b)-0--
D---------0000--------0-0-0----------0-0-0-6-5-0-3(b)-0--


(@ 1:52)
(Played either at 12&10 or 5&3)
e----------------------------------------------------------
B----------------------------------------------------------
G----------------------------------------------------------
D----------------------------------------------------------
A----------12-10(b)---------12-10(b)---12-10(b)------------
D-00000000-12-10(b)-0000000-12-10(b)-0-12-10(b)-0000000000-


e-----------------------------------------------------------
B-----------------------------------------------------------
G-----------------------------------------------------------
D-----------------------------------------------------------
A-12-10(b)---------12-10(b)---12-10(b)---12-10(b)-----------
D-12-10(b)-0000000-12-10(b)-0-12-10(b)-0-12-10(b)-000000000-







(Let ring...)
e-------------------------------------------------------------|--
B-------------------------------------------------------------|--
G----------------------------------------------------------------
D-------------------------------------------------------------0~
A-12-10(b)----------12-10(b)-0-12-10(b)-0-12-10(b)-0-12-10(b)-0~
D-12-10(b)-00000000-12-10(b)-0-12-10(b)-0-12-10(b)-0-12-10(b)-0~



(Pick scraping & slide)



(@ 2:21) 3x | 4th Time
e-----------------------------------------|-------------------
B-----------------------------------------|-------------------
G-----------------------------------------|-------------------
D-----------------------------------------|-------------------
A-----------------------------------------|-------------------
D--0000000-13-13-13-12-12-12-13-13-12-12--|--0000000-12-12-12-



| Play 2x
e---------------|-----------------------------------------
B---------------|-----------------------------------------
G---------------|-----------------------------------------
D---------------|-----------------------------------------
A---------------|-----------------------------------------
D--12-12-12-12--|--0000000-13-13-13-12-12-12-13-13-12-12--




e--------------------------------------------------------------
B--------------------------------------------------------------
G--------------------------------------------------------------
D--------------------------------------------------------------
A---------13-13-13-12-12-12-13-13-13-12-0-12-0-12-0-12-0-12-12-
D-0000000-13-13-13-12-12-12-13-13-13-12-0-12-0-12-0-12-0-12-12-




(@ 2:37) 3x | (@ 2:44)
e--------------------------------|------------------------
B--------------------------------|---end of third time----
G--------------------------------|---------ONLY-----------
D-0------------------------------|------------------------
A-0-0-0-0-0-0-0-13-0-12-0-13-12--|--12-12-12-12-12-12-12--
D-0-0-0-0-0-0-0-13-0-12-0-13-12--|--12-12-12-12-12-12-12--




3x
e--------------------------------|------------------------
B--------------------------------|---end of third time----
G--------------------------------|---------ONLY-----------
D-0------------------------------|------------------------
A-0-0-0-0-0-0-0-13-0-12-0-13-12--|--12-12-12-12-12-12-12--
D-0-0-0-0-0-0-0-13-0-12-0-13-12--|--12-12-12-12-12-12-12--


Chorus Out

Key: h = hammer
(b) = slight bend
/ = slide




Ваше мнение



Капча