M: RacerX1947
Date: Sun, 8 Mar 1998 10:33:54 EST
Subject: c/creed/torn.tab

Creed - "Torn"
From the album "My Own Prison"
Written by Scott Stapp and Mark Tremonti
Transcribed by Mike Steedle ([email protected])
It's a lot to print, but it's definitely worth it.
I read that Mark Tremonti uses a Les Paul Standard
Plugged straight into a Mesa/Boogie Dual Rectifier.
The beginning sounds like it has chorus, so that was
Probably added at the board.
Dropped D tuning (DADGBE)
M - palm mute
B - bend
P - pulloff
/ - slide
INTRO - go from the last 3 notes right back to the
Open D string at the beginning of the riff immediately
At the same tempo to get the right sound - IMPORTANT!
E----------------------0-----|
B-----------6------------6---|
G----7p5---------7p5-------5-| 3x
D-0------0-----0-----0-------|
A----------------------------|
D----------------------------|
E----------------------------|
B----------6-6---6/8-8-8-8-8-|
G----7p5---5-5---5/7-7-7-7-7-|
D-0------0-----0-------------|
A----------------------------|
D----------------------------|
VERSE - the verse is the same as the intro, except the
First part of it is played like this:
E----------------------0-----|
B----------6-6-----------6---|
G----7p5---5-5---7p5-------5-|
D-0------0-----0-----0-------|
A----------------------------|
D----------------------------|
PRECHORUS
M.... m.. m
E-----|-------------|--------------------|
B-----|-------------|--------------------|
G-----|--5----------|--------------------|
D--3--|--5--------3-|-0------------------|
A--3--|--3--------3-|-0------3p0----0--0-|
D--3--|-----0-0-0-3-|-0--0-0-3p0-0--0--0-|
M..
E-------------|----------------|-----------------|
B-------------|----------------|-----------------|
G-------------|----------------|-----------------|
D-------------|-0--------------|-----------------|
A-3-4-5-0-3-4-|-0------3p0-0-0-|-3-4-5-0-5-4-3-0-|
D-------------|-0--0-0-3p0-0-0-|-----------------|
CHORUS - (This doesn't show the strumming pattern)
M..
E--------|--------|--------|------------|
B--------|--------|--------|------------|
G-----5--|-----7--|-----10-|--2--2------|
D--3--5--|--5--7--|--8--10-|--2--2------|
A--3--3--|--5--5--|--8--8--|--0--0------|
D--3-----|--5-----|--8-----|--------0-0-|
E----------------|
B----------------|
G-2-0------------|
D-----2-0--------|
A---------3------|
D-----------3-5b-|
INTERLUDE
M...................... m.. m......
E-------------------|-----------------|-----------------|
B-------------------|-----------------|-----------------|
G-------------------|-----------------|-----------------|
D-------------------|-----------------|-----------------|
A-------------------|-----6-6-----6-6-|-------------4-4-|
E-0-0-10-10-9-9-0-0-|-6-7-----0-0-----|-7-7-0-0-4-5-----|
M...... m......
E---------|-----------------|-----------------|
B---------|-----------------|-----------------|
G---------|-----------------|-----------------|
D---------|---------3-3-3---|---------3-3-3-0-|
A-5-4-----|-----------------|-----------------|
D-----5-0-|-3-3-3-3-------3-|-3-3-3-3---------|
M...... m......
E-----------------|-----------------|
B-----------------|-----------------|
G-----------------|-----------------|
D---------2-2-2---|---------2-2-2-0-|
A-----------------|-----------------|
D-2-2-2-2-------2-|-2-2-2-2---------|
M...................... m.. m......
E-------------------|-----------------|-----------------|
B-------------------|-----------------|-----------------|
G-------------------|-----------------|-----------------|
D-------------------|-----------------|-----------------|
A-------------------|-----6-6-----6-6-|-------------4~--|
D-0-0-10-10-9-9-0-0-|-6-7-----0-0-----|-7-7-0-0-4-5-----|
E---------|--------|
B---------|--------|
G---------|--------|
D--3----5-|-2----3-|
A--3----5-|-2----3-|
D--3----5-|-2----3-|
E----------|----------|------------|--------|-----|-----|
B----------|----------|------------|--------|-----|-----|
G----------|----8---8-|----------6-|7\6-----|-----|-----|
D-0-10-9-0-|6/7-8---8-|7-0--04/5-6-|7\6-5p0-|3--5-|2--3-|
A-0-10-9-0-|6/7-6---6-|7-0-0-4/5-4-|5\4-5p0-|3--5-|2--3-|
D-0-10-9-0-|6/7---0---|7-0-0-4/5---|----5p0-|3--5-|2--3-|
THIRD CHORUS - doesn't show strumming pattern (concentrate
E------|------|------|-------| strumming on D and G strings)
B------|------|------|-------|
G-5--5-|-7--7-|-10-10|-9-\-7-| 2x
D-3--5-|-5--7-|-8--10|-7-\-5-|
A-3--3-|-5--5-|-8--8-|-0-----| then play the turnaround
D-3----|-5----|-8----|-------|
-Lyrics-
Peace is what they tell me
Love I am unholy
Lies are what they tell me
Despise you that control me
The peace is dead in my soul
I have blamed the reason for
My intentions poor
Yes I'm the one who
The only one who
Would carry on this far
Torn, I'm filthy
Born in my own misery
Stole all that you gave me
Control you claim you save me
The peace is dead in my soul
I have blamed the reason for
My intentions poor
Yes I'm the one who
The only one who
Would carry on this far




Ваше мнение



Капча