T1: Jeff Kenny, [email protected], Creed, Torn, ??/??/??
S1: Not sure of the release, Artist: Creed
Album: My own Prision
Tabbed By: Jeff Kenny
Feedback at: [email protected]
Tabbed on: September 5th, 1999
Dropped D tuning (DADGBE)
m - palm mute
b - bend
p - pulloff
/ - slide
Sorry for any neatness problems my computer crashed on me before I
saved the first time so I did
half of this version very quickly. Good luck and play hard.
INTRO - go from the last 3 notes right back to the open D
string at the beginning of the riff immediately at the same
tempo to get the right sound - IMPORTANT!
e-----------------------0-------|
b-----------6-------------6----|
g----7p5---------7p5-------5-| 3x
d-0------0-----0-----0---------|
a--------------------------------|
d--------------------------------|
e--------------------------------|
b----------6-6---6/8-8-8-8-8-|
g---7p5----5-5--5/7-7-7-7-7-|
d-0------0-----0---------------|
a--------------------------------|
d--------------------------------|
VERSE - the verse is the same as the intro, except the first
part of it is played like this:
e----------------------0---------|
b----------6-6------------6-----|
g----7p5---5-5---7p5--------5--|
d-0------0-----0-----0----------|
a---------------------------------|
d---------------------------------|
PRECHORUS
e-----|--------------|-------------------------|
b-----|--------------|-------------------------|
g-----|--5-----------|------------------------|
d--3--|--5--------3-|-0----------------------|
a--3--|--3--------3-|-0--------3p0-0--0-|
d--3--|----0-0-0-3-|--0-0-0-3p0-0--0--0---|
m..
e---------------|----------------|-------------------------|
b---------------|----------------|-------------------------|
g---------------|----------------|-------------------------|
d---------------|-0--------------|------------------------|
a-3-4-5-0-3-4-|-0------3p0-0-0-|-3-4-5-0-5-4-3-0-|
d----------------|-0--0-0-3p0-0-0-|--------------------|
CHORUS - (This doesn't show the strumming pattern)
m..
e--------|--------|--------|----------------|
b--------|--------|--------|----------------|
g-----5--|-----7--|-----10-|--2--2------|
d--3--5--|--5--7--|--8--10-|--2--2------|
a--3--3--|--5--5--|--8--8--|--0--0------|
d--3-----|--5-----|--8-----|--------0-0-|
e----------------|
b----------------|
g-2-0------------|
d-----2-0--------|
a---------3------|
d-----------3-5b-|
INTERLUDE
e-------------------|-----------------|-----------------|
b-------------------|-----------------|-----------------|
g-------------------|-----------------|-----------------|
d-------------------|-----------------|-----------------|
a-------------------|------6-6-----6-6-|-------------4~--|
e-0-0-10-10-9-9-0-0-|-6-7-----0-0-----|-7-7-0-0-4-5-----|
e---------|-----------------|----------------------|
b---------|-----------------|----------------------|
g---------|-----------------|----------------------|
d---------|---------3-3-3---|-----------3-3-3-0-|
a-5-4-----|-----------------|---------------------|
d-----5-0-|-3-3-3-3-------3-|-3-3-3-3---------|
e-----------------|-----------------|
b-----------------|-----------------|
g-----------------|--------------------|
d---------2-2-2---|---------2-2-2-0-|
a-----------------|---------------------|
d-2-2-2-2-------2-|-2-2-2-2---------|
then play first four bars of interlude followed by this:
(doesn't show strumming pattern)
e---------|--------|
b---------|--------|
g---------|--------|
d--3----5-|-2----3-|
a--3----5-|-2----3-|
d--3----5-|-2----3-|
e-------------|----------|----------|--------|-----|-----|
b-------------|----------|----------|--------|-----|-----|
g-------------|-----8--8-|----------6-7-6-----|-----|-----|
d-0-10-9-0-|6/7-8---8-|7-0-4/5-6-|7-6-5-0-|3--5-|2--3-|
a-0-10-9-0-|6/7-6---6-|7-0-4/5-4-|5-4-5-0-|3--5-|2--3-|
d-0-10-9-0-|6/7---0---|7-0-4/5---|------5--0-|3--5-|2--3-|
THIRD CHORUS - doesn't show strumming pattern (concentrate
e------|------|------|-------| strumming on D and G strings)
b------|------|------|------------|
g-5--5-|-7--7-|-10-10|-9--7-| 2x
d-3--5-|-5--7-|-8--10|-7--5-|
a-3--3-|-5--5-|-8--8-|-0------| then play the turnaround
d-3----|-5----|-8----|---------|




Ваше мнение



Капча