Drop-D Tuning

Intro/Verse: (Clean)
E-|--2--2------------------------------------------------------/6--6-6----------|
B-|--2--2-------------------------------6----------------------/6--6-6----------|
G-|--4--4--4-4--7--7-7-7-7--7-7-7-5-7---5---7---5------5-5-5--5/8--8-8--7--7-7--|
D-|--4--4--4-4--5--5-5-5-0--0-0-0-0-0-0-0-0-0-0-0--0-2-3-3-3--3/8--8-8--0--0-0--|
A-|--2--2--2-2--5--5-5-5-0--0-0-0-0---0---0---0----0-2-3-3-3--3/6--6-6--0--0-0--|
D-|-------------5--5-5-5-0--0-0-0-0---0---0---0----0-2-3-3-3--3---------0--0-0--|

E-|-----------------------2--2----------------------------------|
B-|----------------6------2--2----------------------------------|
G-|------5-----5-7-5-7-7--4--4--7--7-7-7-7--7-7-7-5-7-7-7--5-5--|
D-|--5-7-0-7---0-0-0-0-0--4--4--5--5-5-5-0--0-0-0-0-0-0-0--0-0--|
A-|--0-0---0-0-0-----0-0--2--2--5--5-5-5-0--0-0-0-0-0-0-0--0-0--|
D-|--0-0---0-0-0-----0-0--------5--5-5-5-0--0-0-0-0-0-0-0--0-0--|

E-|-----------------6--6-6------------------------------|
B-|-----------------6--6-6---------------6--------------|
G-|--------5-5-5--5/8--8-8--7--7-7-5-7---5-----5-7-7-7--|
D-|--0-2-3-3-3-3--3/8--8-8--0--0-0-0-0-0-0-0-0-0-0-0-0--|
A-|--0-2-3-3-3-3--3-6--6-6--0--0-0-0-0-0---0-0-0-0-0-0--|
D-|--0-2-3-3-3-3--3---------0--0-0-0-0-0---0-0-0-0-0-0--|

E-|--2--2------------------------------------------------/6--6-6----------|
B-|--2--2------------------------------------------------/6--6-6----------|
G-|--4--4--7--7-7-7-7--7-7-7-5-7-7-7--5-5--------5-5-5--5/8--8-8--7--7-7--|
D-|--4--4--5--5-5-5-0--0-0-0-0-0-0-0--0-0--0-2-3-3-3-3--3/8--8-8--0--0-0--|
A-|--2--2--5--5-5-5-0--0-0-0-0-0-0-0--0-0--0-2-3-3-3-3--3/6--6-6--0--0-0--|
D-|--------5--5-5-5-0--0-0-0-0-0-0-0--0-0--0-2-3-3-3-3--3---------0--0-0--|

E-|-----------------------2--2----------------------------------|
B-|----------------6------2--2----------------------------------|
G-|------5-----5-7-5-7-7--4--4--7--7-7-7-7--7-7-7-5-7-7-7--5-5--|
D-|--5-7-0-7---0-0-0-0-0--4--4--5--5-5-5-0--0-0-0-0-0-0-0--0-0--|
A-|--0-0---0-0-0-----0-0--2--2--5--5-5-5-0--0-0-0-0-0-0-0--0-0--|
D-|--0-0---0-0-0-----0-0--------5--5-5-5-0--0-0-0-0-0-0-0--0-0--|

E-|-----------------6--6-6------------------------------|
B-|-----------------6--6-6---------------6--------------|
G-|--------5-5-5--5/8--8-8--7--7-7-5-7---5-----5-7-7-7--|
D-|--0-2-3-3-3-3--3/8--8-8--0--0-0-0-0-0-0-0-0-0-0-0-0--|
A-|--0-2-3-3-3-3--3-6--6-6--0--0-0-0-0-0---0-0-0-0-0-0--|
D-|--0-2-3-3-3-3--3---------0--0-0-0-0-0---0-0-0-0-0-0--|

Pre-Chorus:
E-|---------------/6--6-6--------------------------|
B-|---------------/6--6-6--------------------------|
G-|---------------/8--8-8--7--7-7-7-5-7-7-7-7-5-5--|
D-|--0-2-3-3-3-3-3/6--6-6--0--0-0-0-0-0-0-0-0-0-0--|
A-|--0-2-3-3-3-3-3/6--6-6--0--0-0-0-0-0-0-0-0-0-0--|
D-|--0-2-3-3-3-3-3---------0--0-0-0-0-0-0-0-0-0-0--|

Chorus: Play 2 Times
E-|--5--5-5-5--5-5-2-2--0--0-0--0-0---0-0-0-0---0-0--2--2-2--2-2-2-2--2-2-2--|
B-|--3--3-3-3--3-3-3-3--5--5-5--5-5---5-5-5-5---5-5--2--2-2--2-2-2-2--2-2-2--|
G-|--2--2-2-2--2-2-2-2--6--6-6--6-6h7-7-7-7-7p6-6-6--4--4-4--4-4-4-4--4-4-4--|
D-|--0--0-0-0--0-0-0-0--7--7-7--7-7---7-7-7-7---7-7--4--4-4--4-4-4-4--4-4-4--|
A-|--0--0-0-0--0-0-0-0--0--0-0--0-0---0-0-0-0---0-0--2--2-2--2-2-2-2--2-2-2--|
D-|--------------------------------------------------------------------------|

E-|--5--5-5--5-5-5-5--5-5--|
B-|--5--5-5--5-5-5-5--5-5--|
G-|--7--7-7--7-7-7-7--7-7--|
D-|--7--7-7--7-7-7-7--7-7--|
A-|--5--5-5--5-5-5-5--5-5--|
D-|--5--5-5--5-5-5-5--5-5--|

Verse 2: (Clean)
E-|--2--2-------------------------------------------------------/6--6-6----------|
B-|--2--2-------------------------------6-----------------------/6--6-6----------|
G-|--4--4--4-4--7--7-7-7-7--7-7-7-5-7---5---7---5---------------/8--8-8--7--7-7--|
D-|--4--4--4-4--5--5-5-5-0--0-0-0-0-0-0-0-0-0-0-0--0-2-3-3-3-3-3/8--8-8--0--0-0--|
A-|--2--2--2-2--5--5-5-5-0--0-0-0-0---0---0---0----0-2-3-3-3-3-3/6--6-6--0--0-0--|
D-|-------------5--5-5-5-0--0-0-0-0---0---0---0----0-2-3-3-3-3-3---------0--0-0--|

E-|-----------------------2--2----------------------------------|
B-|----------------6------2--2----------------------------------|
G-|------5-----5-7-5-7-7--4--4--7--7-7-7-7--7-7-7-5-7-7-7--5-5--|
D-|--5-7-0-7---0-0-0-0-0--4--4--5--5-5-5-0--0-0-0-0-0-0-0--0-0--|
A-|--0-0---0-0-0-----0-0--2--2--5--5-5-5-0--0-0-0-0-0-0-0--0-0--|
D-|--0-0---0-0-0-----0-0--------5--5-5-5-0--0-0-0-0-0-0-0--0-0--|

E-|----------------6--6-6------------------------------|
B-|----------------6--6-6---------------6--------------|
G-|--------5-5-5-5/8--8-8--7--7-7-5-7---5-----5-7-7-7--|




Ваше мнение



Капча