Title: Steal My Freedom
Artist: Creed
Tabbed by: George Hawxhurst
Written by: Mark Tremonti and Scott Stapp
Tunning: Drop D: DADGBE
[This was created with TabIt for Windows version 1.57]
Intro ( Play 2x )
E--2---------2---3--3-3-3-------------------------------|
B----2-------2---3--3-3-3-------------------------------|
G------4-----4-/-4--4-4-4-7---7-7-5-7-10-7-5-7--------5-|
D--------4---4-/-5--5-5-5-7---7-7-5-7-10-7-5-7--0-2-3-5-|
A----------2-2---5--5-5-5-7---7-7-5-7-10-7-5-7--0-2-3-5-|
D----------------x--x-x-x-----------------------0-2-3---|
E--------------------------------------------------|
B--------------------------------------------------|
G-5-5---8-8--8-8-8-7-7-7--0-2-5-2--5-7-10-7-0------|
D-5-5-/-8-8--8-8-8-7-7-7--0-2-5-2--5-7-10-7-0------|
A-5-5---8-8--8-8-8-7-7-7--0-2-5-2--5-7-10-7-0------|
D--------------------------------------------------|
E---2-2---3--3-3-3-------------------|
B---2-2---3--3-3-3-------------------|
G---4-4-/-4--4-4-4-7---7-7-5-7-7-7-5-|
D---4-4-/-5--5-5-5-7---7-7-5-7-7-7-5-|
A---2-2---5--5-5-5-7---7-7-5-7-7-7-5-|
D---------x--x-x-x-------------------|
E--------------------------------------------------|
B--------------------------------------------------|
G-7--------5-5-5---8-8--8-8-8-7-7-5-7-10-7-5-7-----|
D-7--0-2-3-5-5-5-/-8-8--8-8-8-7-7-5-7-10-7-5-7-----|
A-7--0-2-3-5-5-5---8-8--8-8-8-7-7-5-7-10-7-5-7-----|
D----0-2-3-----------------------------------------|
2nd Intro
E--------------------------------------------------|
B--------------------------------------------------|
G-5-5-5---8-8--8-8-8-7-7-5-7-10-7-5-7--------------|
D-5-5-5-/-8-8--8-8-8-7-7-5-7-10-7-5-7--------------|
A-5-5-5---8-8--8-8-8-7-7-5-7-10-7-5-7--------------|
D--------------------------------------------------|




Ваше мнение



Капча