Author/Artist: Creed
Title: Stand here With Me
Album: Weathered
Transcribed by: Pete
Email: slipknot0863616 (AIM)
Its me again. This tab is simply awesome. Its not too hard
I hope you dont get turned off to this tab because its big.
Try and learn this song. Keep trying. It pays off!
Tremonti tuning D A D G B E!!
----------------------------------|-2-------2---|-2---3--3-2-|----------------
-----h-------h------h------h----7-|-----3-------|---h----3-3-|----------------
---6---7---6---7--6---9--6---7----|-------------|------------|----------------
----------------------------------|---4---4---4-|------------|-------h---7-7--
-0-------0------------------------|-------------|------------|-----4---5------
----------------------------------|-------------|------------|-2-0------------
Intro
-------------------------------|----------------------------|-----------------
-------------------------------|----------------------------|-----------------
-4-6-7---------------4-6-7-/-9-|---6-7-9-6-7-9-9-6-7-9-/-11-|-----------------
-------------h---7-7-----------|----------------------------|--------h--------
-----------4---5---------------|-0--------------------------|-0---11---12-----
-------2-0---------------------|-0--------------------------|---0-11---12-----
Verse
-----------------------|--------------------------------------------------|---
-----------------------|--------------------------------------------------|---
-------11-12--12-11----|-------------4-6-7-/-9-\-7--------------4-6-7-/-9-|---
-12-------b---------12-|-----h---7-7--------------------h---7-7-----------|---
-----------------------|---4---5----------------------4---5---------------|---
----12-----------------|-0--------------------------0---------------------|---
Put pinch harmonics in wherever.
-------------------------------------------------------------------------|----
-------------------------------------------------------------------------|----
-------------------------------------------------------------------------|----
--------6-6-6-6-6-6-6-6-6-5-5-5-3-3-0-3-3-3--3-/-5-5-5-0--5-/-7-7--5-/-7-|----
--------3-3-3-3-3-3-3-3-3-5-5-5-1-1-0-3-3-3--3-/-5-5-5-0--3-/-5-5--3-/-5-|----
-12-/-0-------------------5-5-5-----0-3-3-3--3-/-5-5-5-0-----------------|----
Chorus
-----|-------------------------------------------|-------------------|-13-----
-----|-v-----------------------------------------|-------------------|-b------
-----|-7--7-7-9-/-10-7-0----h-----h---p----------|-------------------|--------
---b-|--------------------7---9-7---9---7--------|-------------------|----b---
---3-|------------------------------------10-7-0-|-10-9-10-9-10-9-0--|--------
-0---|-------------------------------------------|-------------------|--------
Solo |------PM-------|
-14-14-12-------12-14-15-14-|---------------------------------------------|---
----------15-12-------------|----------p----p-----------------------------|---
----------------------------|-10-11-13---11---10--------------------------|---
----------------------------|--------------------13-12--12-10-12-10-10-12-|---
----------------------------|-----------------------ph-----------------ph-|---
----------------------------|---------------------------------------------|---
----------|-14-12-14----14-12-14-15-14-12-14-15-14-12-14----|-15---14---10----
----------|----------15----------------------------------15-|----p----p----h--
----------|-------------------------------------------------|-t---------------
-12-/-0-0-|-------------------------------------------------|-----------------
-12-/-0-0-|-------------------------------------------------|-----------------
-12-/-0-0-|-------------------------------------------------|-----------------
X 4
-14-|-17---14---10---14--15---14---10---14-|-17--17-17--17----------|---------
----|----p----p----h--------p----p----h----|------------------------|---------
----|-t------------------t-----------------|-b---b--b---b-----------|---------
----|--------------------------------------|------------------------|---------
----|--------------------------------------|------------------------|---------
----|--------------------------------------|----------------12-/-0--|---------
Then X2




Ваше мнение



Капча