#----------------------------------PLEASE NOTE--------------------------------#
#This file is the author's own work and represents their interpretation of the#
#song. You may only use this file for private study, scholarship, or research.#
#-----------------------------------------------------------------------------#
#-- File created with Instab - http://www.pconline.com/~smcarey/instab.html --#
#-----------------------------------------------------------------------------#
Author/Artist: Creed
Title: Stand Here With Me
Album: Weathered
Transcribed by: Andrew Shantz
Email: [email protected]
Hey guys. Here's my version of the solo. It should be pretty correct I think.
At the end Mark is tapping but this is how I play it. It sounds pretty close
If you know how to tap then do so. Drop me an e-mail if you have any questions.
As in my tab of One Last Breath, I used a program to slow it down so I could
make out all the notes. Enjoy.
------------------------------------------------------------------------------
------------------------------------------------------------------------------
-----7b7v-x-x-9h10-7v-----7-9-7h9p7----9-7------------------------------------
-12------------------12-----------10-----10-7--------5p4---5p4---5p4--------
-12------------------12-----------------------10---------5-----5-----5------
-12------------------12-----------------------------------------------------

---------------14b-15b15-13b13b13b13-13-10-12----10---------------------------
----------------------------------------------13----13b-13b13-----------------
-----------------------------------------------------------------9-10-12p10p9-
-5p4p0-0----------------------------------------------------------------------
-------0----------------------------------------------------------------------
-------0----------------------------------------------------------------------

--------------------------------------------------14-12-14------14-12-14-15---
------------ph---------------------------------------------15v----------------
-10----9-------------------10-9-----------------------------------------------
----12---10-12^---------12------10-12/-----0----------------------------------
---------------------12--------------------0----------------------------------
---------------------------------------12-0----------------------------------

-14-12-14-15-14-12-14------14-12-14-15--14-12-14-15-14-12-14------14-12-14-15-
----------------------15v------------------------------------15v--------------
------------------------------------------------------------------------------
------------------------------------------------------------------------------
------------------------------------------------------------------------------
------------------------------------------------------------------------------

-14-12-14-15-14-12-14--17p14----17p14----17p14----17p14----19p14----17p14-----
-----------------------------15-------15-------15-------15-------15-------15--
------------------------------------------------------------------------------
------------------------------------------------------------------------------
------------------------------------------------------------------------------
------------------------------------------------------------------------------

-19p14----17p14----17b-17b-17b-17v--------------------------------------------
-------15-------15------------------------------------------------------------
------------------------------------------------------------------------------
-----------------------------------12----------------------------------------
-----------------------------------12----------------------------------------
-----------------------------------12----------------------------------------




Ваше мнение



Капча