The intro is a little different than the one posted on the home page...

-----------------------------------------------
----------------------------------------------- I dont know
---6-7h-6-7h-6-7h-6-7h-11---7-9-12-12-11-7----- the last
---------------------------0------------------- part of the
-0--------------------------------------------- intro.
-----------------------------------------------
The distortion starts here.
-----------------------------------------------
----------------------------------------------- I dont know
---6-7h-6-7h-6-7h-6-7h-11---7-9-14-12-11-7----- the last
---------------------------0------------------- part of the
-0--------------------------------------------- intro.

Have a good time with the REAL intro!




Ваше мнение



Капча