Author/Artist: Creed
Title: Say I
Album: Human Clay
Transcribed by: Adam Strachn
Email: [email protected]

Drop D tuning

Intro – the bends are full bends; Play the first part 2 x -
------------------------------------------|----------------------------------|
------------------------------------------|----------------------------------|
-5--5-------5-------3-------3----------3--|-----------7-------5--7--7brb--5--|
-3--3---0---5---0---1---0---3---0--0---3--|--0-0-0-0--7--0-0--5--7--7brb--5--|
-3--3---0---3---0---1---0---1---0--0---1--|--0-0-0-0-----0-0-----------------|
-3--3---0-------0---1---0-------0--0------|--0-0-0-0-----0-0-----------------|

Then this -
---------------------------------------|------------------------------------0--|
---------------------------------------|-----------------10-12b-10----10-10-0--|
-5--5--5------5------3--3--3--3--3--3--|-----------10-12-10-12b-10-12-10-10----|
-3--3--3---0--5--0---1--1--3--1--1--3--|--0-0-0-0--10-12-----------12----------|
-3--3--3---0--3--0---1--1--1--1--1--1--|--0-0-0-0------------------------------|
-3--3--3---0-----0---1--1-----1--1-----|--0-0-0-0------------------------------|

---------------------------------------|-------|
---------------------------------------|-------|
-5--5--5------5------3--3--3--3--3--3--|-------|
-3--3--3---0--5--0---1--1--3--1--1--3--|--0~~--|
-3--3--3---0--3--0---1--1--1--1--1--1--|--0~~--|
-3--3--3---0-----0---1--1-----1--1-----|--0~~--|

Verse -
-----5-----------------------------|------------------------------|
---------3-------------3-----------|--------------8------------7--|
-----------------2/3-------3p0--2--|----------8------------7------|
-------------0---------------------|------0------------0----------|
-----------------------------------|------------------------------|
-0~--------------------------------|--0~--------------------------|

Pre Chorus – “Who is to blame? . . .”
---------------------------------------|
-------10-----10-----10-----10-----10--|
----8------8------8------8------8------|
-0-------------------------------------|
---------------------------------------|
---------------------------------------|

---------------------------------------|
-------10-----10-----10-----10-----10--|
----7------7------7------7------7------|
-0-------------------------------------|
---------------------------------------|
---------------------------------------|

Repeat above 1 more time

Then this – “Say I~~~ . . .”
---------------------------------------|
-------10-----10-----11-----10-----11--|
----8------8------8------8------8------|
-0-------------------------------------|




Ваше мнение



Капча