T. See http://www.olga.net/faq/ for more information. #
From: "Peter Aman"
Subject: c/creed/pity_for_a_dime.tab
Date: Thu, 14 Oct 1999 19:13:09 MDT
Creed - "Pity For A Dime"
From the album: My Own Prison
Written by: Mark Tremonti and Scott Stapp
Transcribed by Peter Aman ([email protected])
Drop D Tuning
H: hammer on
P: pull off
\: slide
INTRO
E--------------------------------------------------------|
B-----------------------------5--------------------------|
G-9--9-9-9-9----------------6---6------------------------| X 4
D-9--9-9-9-9--------------6-------6----------------------|
A-7--7-7-7-7-7-6-6h7p6-4------------4--------7h9---------|
D-------------------------------------7-77h9-------------|
E--------------------------------------------------------|
B------------5-------------------------------------------|
G-9-9------6---6-----------------------------------------|
D-9-9----6-------6-----6-6-6\9-9-9-----------------------|
A-7-7--4-----------4---6-6-6\9-9-9-----------------------|
D--------------------6-6-6-6\9-9-9-----------------------|
E--------------------------------------------------------|
B------------5-------------------------------------------|
G-9-9------6---6-----------------------------------------|
D-9-9----6-------6-----6-6-6\7-7-7-----------------------|
A-7-7--4-----------4---6-6-6\7-7-7-----------------------|
D--------------------6-6-6-6\7-7-7-----------------------|
E--------------------------------------------------------|
B-----------------------------5--------------------------|
G-9--9-9-9-9----------------6---6------------------------| X 4
D-9--9-9-9-9--------------6-------6----------------------|
A-7--7-7-7-7-7-6-6h7p6-4------------4--------7h9---------|
D-------------------------------------7-77h9-------------|
CHORUS
E--------------------------------------------------------|
B--------------------------------------------------------|
G-9--9-9-9-9--9-9-9-7--7-7--7-7-7------------------------| X 4
D-9--9-9-9-9--9-9-9-7--7-7--7-7-7--9-9--9-9-4--4-4-4-4---|
A-7--7-7-7-7--7-7-7-5--5-5--5-5-5--9-9--9-9-4--4-4-4-4---|
D----------------------------------9-9--9-9-4--4-4-4-4---|
BRIDGE
E-0--0--0-0-0--0-0--0-0-0--------------------------------|
B-0--0--0-8-8--0-0--0-8-8--------------------------------|
G-9--9--9-9-9--9-9--9-9-9--------------------------------| X 4
D-9--9--9-9-9--9-9--9-9-9--------------------------------|
A-7--7--7-7-7--7-7--7-7-7--------------------------------|
D--------------------------------------------------------|
INTERLUDE
E------------------------------------------------
B------------------------------------------------
G-9--9-9-9-9--9-9-9--9--9-9-9-9--9-9-9---5-5-5---
D-9--9-9-9-9--9-9-9--9--9-9-9-9--9-9-9---5-5-5-5-
A-7--7-7-7-7--7-7-7--7--7-7-7-7--7-7-7---3-3-3-5-
D----------------------------------------------5-
E-----------------------|
B-----------------------|
G-4-4-4-----------------| X 4
D-4-4-4-4--0-4\5-4\5-2--|
A-2-2-2-4--0-4\5-4\5-2--|
D-------4--0-4\5-4\5-2--|
END
E-----------------------------------------------------------
B-----------------------------------------------------------
G--5-5-5----4-4-4---------------5-5-5----4-4-4--------------
D--5-5-5-5--4-4-4-4--0-4\5-4\5--5-5-5-5--4-4-4-4--0-4\5-4\5-
A--3-3-3-5--2-2-2-4--0-4\5-4\5--3-3-3-5--2-2-2-4--0-4\5-4\5-




Ваше мнение



Капча