Creed Rare Acoustic Guitar
Opspeculate Written By Jason Empey aka "The RockSTAR"
{www.sourcepromo.com/rockstar}
Jason Empey [e-mail [email protected]]
Track 1
This is the main parts of all three guitars in Opspeculate broken down into one tab.
Play along with the song at the same time to get the feel.
Hope this helps. More Details at the bottom...

D||------0---------0---------0--|-----0---------0-----------|
A||---------0---------0---------|--------0---------0--------|
G||--10------------------10-----|--9------------------9--7--|
D||------------12---------------|-----------10--------------|
A||-----------------------------|---------------------------|
D||-----------------------------|---------------------------|

--0--------0--------0-----|-----0-----0--0----0----|
-----0--------0--------0--|--------0---------------|
--------------------------|-----------5/-7----7----|
--------7--------0--------|--7---------------------|
--------------------------|------------------------|




Ваше мнение



Капча