Song: One
Artist: Creed
Tabber: Jeff Raines ([email protected])

Intro/Verse (Clean with chorus and reverb):

E--------------------|-------------------|
B--------------------|-------------------|
G--------------------|-------------------|
D--------------------|11--11-11-9--11/14-|
A--7-7-7-6-6-6-6h7p6-|-0---0--0-0---0--0-|
E--9-9-9-9-9-9-9-----|-------------------|
PM-------------|

E---------------------|---------------------|
B---------------------|---------------------|
G-9--9-9-9-9--9-9-9-9-|---------------------|
D-9--9-9-9-9--9-9-9-9-|-9--9-9-9-9--9-9-9-9-|
A-7--7-7-7-7--7-7-7-7-|-9--9-9-9-9--9-9-9-9-|
E---------------------|-7--7-7-7-7--7-7-7-7-|

The part played over the second pre chorus (One, oh one...)(Played over verse riff)(Disorted):

E--------|-------|
B--------|-------|
G--9-----|-------|
D--9-----|--9----|
A--7-----|--9----|
E--------|--7----|

This is played many times throughout the song, with minor variations.

Chorus(Dist. on):

*There are some random natural harmonics on the low E here*

E--------------------|--------------------|
B--------------------|--------------------|
G-4--4-4-4--4-4-4--4-|--------------------|
D-4--4-4-4--4-4-4--4-|-4--4-4-4--4-4-4--4-|
A-2--2-2-2--2-2-2--2-|-4--4-4-4--4-4-4--4-|
E--------------------|-2--2-2-2--2-2-2--2-|

E--------------------|--------------------|
B--------------------|--------------------|
G-6--6-6-6--6-6-6--6-|--------------------|
D-6--6-6-6--6-6-6--6-|-6--6-6-6--6-6-6--7-|
A-4--4-4-4--4-4-4--4-|-6--6-6-6--6-6-6--7-|
E--------------------|-4--4-4-4--4-4-4--5-|

At the end of this on the second chorus there are pick slides on the low E

Bridge(Flange, Dist):

E------2-|----0-------|------4-|---------|
B------2-|------0-----|------4-|---------|
G------4-|--------3---|------6-|-----6-5-|
D----4---|-----------4|----6---|---------|
A-2------|------------|-4------|---6-----|
E--------|0-2---------|--------|-4-------|

E-----|-----------| |---------------------------|
B-----|-----------| |---------------------------|
G-----|-------8---|3x |-9--9-9--9-9--9-9--9-9-9-9-|
D-----|---------9-| |---------------------------|
A-X-X-|-7h9-9-----| |---------------------------|
E-----|-----------| |---------------------------|
PM---------|

Last chorus:




Ваше мнение



Капча