One Last Breath
By: Creed
Album: Weathered
Tabbed by: Mike Carlozzi
E-mail: [email protected]

Riff 1
E|-2----5----0h2-------------------------------------------------------------3-2---|
B|----------------3------2-3-3h5----5p3p2h3----0---3-----2h3-0-----------3---------|
G|------------------2------------------------------------------------0-----2-------|
D|-0-0----0----------------------------------------------------0---0---0-----------|
A|---------------------0----------0----------0-2-2----2----------------------------|
E|---------------------------------------------------------------3-----------------|

Riff 1
E|-2---3---2-0h2------------------------------------2-------------------3----------|
B|----------------3----------2-2h3p2--------------2---2-------------------3--------|
G|-------------------------2-------------0------4--------4-----------0------0------|
D|-0-0---0--------------2-------------4-------4-------------4------0-----------0---|
A|------------------4-0---------------------2--------------------2-----------------|
E|-------------------------------------------------------------3-------------------|

Riff 2
E|-5---5---2-22---2-2---2---3-33---3|
B|-5---5---2-22---2-2---2---3-33---3|
G|-7---7---3-33---3-4---4---4-44---4|
D|-7---7---4-44---4-4---4---5-55---5|
A|-5---5---4-44---4-2---2---5-55---5|
E|-5---5---2-22---2-2---2---3-33---3|

Pick up to Riff 3
E|-2---2-3----3--3333---|
B|-2---2-3----3--3333---|
G|-4---4-4----4--4444---|
D|-4---4-5----5--5555---|
A|-2---2-5----5--5555---|
E|-2---2-3----3--3333---|

Riff 3
E|-0---0---3---3-5---5-5---5-55---5-5---5-7---7-3---3-3---3-33---3|
B|-0---0---3---3-5---5-5---5-55---5-5---5-7---7-3---3-3---3-33---3|
G|-0---0---4---4-7---7-7---7-77---7-6---6-7---7-4---4-4---4-44---4|
D|-2---2---5---5-7---7-7---7-77---7-7---7-9---9-5---5-5---5-55---5|
A|-2---2---5---5-5---5-5---5-55---5-7---7-9---9-5---5-5---5-55---5|
E|-0---0---3---3-5---5-5---5-55---5-5---5-7---7-3---3-3---3-33---3|

Riff 1 3X
Riff 2 2X
Riff 1 3X
Riff 2(distorted) 4X
Pick up to Riff 3 2X
Riff 3 2X
Riff 2 2X
Riff 2(distorted) 4X
Riff 1(first part)1X




Ваше мнение



Капча