Artist: Creed
Song: One Last Breath
Submitted by: madpistolpete

This song is awesome once you get the intro down

Guitar1: Standard tuning
Intro: (clean tone, fingerpick)
(3x)
D A Bm G5
E |--2---5---0h2----------------------------------------------32--
B |-------------3----23-3h5--3h5-3----0---3--0h3------------3-----
G |--------------2----------------2---------------4-----0----2----
D |--0-0---0---------------------------------------4--0---0-------
A |----------------0-------0----------2-2--2----------------------
E |--------------------------------------------------3------------

D A Bsus2 G
E |--2---3---2-2h3------------------------2---------3-----------
B |---------------3-------2-2h3p2--------2-2---------3----------
G |----------------2-----2-------2------4---4------0--0---------
D |--0-0---0------------2----------40--4-----0----0----0--------
A |-------------------0---------------2----------2--------------
E |---------------------------------------------3---------------
Chorus: (clean tone)
D F#7add4 Bsus4 G5
E |--2--------0--------0---------3--------------------------------
B |--3--------0--------0---------3--------------------------------
G |--2--------3--------4---------0--------------------------------
D |--0--------4--------4---------0--------------------------------
A |-----------4--------2---------x--------------------------------
E |-----------2------------------3--------------------------------

3 times
D A Bm G
E |--2---5---0h2-----------------------------------------32------
B |-------------3----23-h5--3h5-3-2--0---3--0h3------------------
G |--------------2-----------------------------4-------4---------
D |--0-0---0------------------------------------4----5--5--------
A |----------------0------0----------2-2--2---------5-5----------
E |------------------------------------------------3-------------

Guitar 2 Drop D Tuning
Chorus (heavy distortion)
, D5 F#5 B5 G5
E |---------------------------------------------------------------
B |--3------------------------------------------------------------
G |--2-----------------4------------------------------------------
D |--0--------4--------4---------5--------------------------------
A |--0--------4--------2---------5--------------------------------
E |--0--------4------------------5--------------------------------


Guitar 2
B5 G5 (2x)
E |-----------
B |-----------
G |--4--------
D |--4---5----
A |--2---5----
E |------5----

Bridge: (2x)
Em Esus2 G Gsus2 D A5 B5 G
E |----------------------2----------------------------------------------
B |----------------------3--------------------------------------8-------
G |----------------------2------------2---------4---------------7-------
D |--5---4-----9----7----0------------2---------4---------------5-------
A |--2---2-----5----5----0------------0---------2---------------5-------
E |--2---2-----5----5----0--------------------------------------5-------
Sad eyes f ol- low me but i still believe there's something left for me
please come stay with me cuz i still believe there's something left for you and me........

Interlude:
Guitar1 (clean) (2x)
D F# 7add4 Bsus4 G 2 times
E |--2-----------------0------------------------------------------
B |--3--------0--------0------------------------------------------
G |--2--------3--------4---------4--------------------------------
D |--0--------4--------4---------5--------------------------------
A |--0--------4--------2---------5--------------------------------
E |-----------2------------------3--------------------------------

Then Guitar 2 does the chorus again

Then Guitar 1 plays the outro
D A Bm G
E |--2---5---0h2------------------------------------------3--------
B |-------------3----23-3h5--3h5-3-2--0---3--0h3------------------
G |--------------2------------------------------4-----------------
D |--0-0---0-------------------------------------4----5-----------
A |----------------0-------0----------2-2--2---------5-5----------
E |-------------------------------------------------3-------------




Ваше мнение



Капча