Author/Artist: Creed
Title: One Last Breath
Album: Weathered
Tuning: Standard (E A D G B E)
Transcribed by: Adam Strachn
Email: [email protected]
Submitted By: IcEmAn
Notes:
Verse – play with feeling. Listen to the song carefully for notes.
Chorus – Listen to song for strumming pattern.
Bridge – Listen to song CAREFULLY for chords placement.
Violins/Clean Chorus – Just listen to the song for duration of notes.
Intro – (fingerpicked)
-2-----5-----0h2---------------------------------|
------------------3--------2h3h5-----3h5p3p2-----|
---------------------2------------------------2--|
-0--0-----0--------------------------------------|
------------------------0---------0--------------|
-------------------------------------------------|
------------------------------------------3--2--|
-------3-----2h3--0-----------------2-----------|
---------------------0--------0-----------------|
---------------------------0-----0-----0--------|
-2--2-----2-------------------------------------|
------------------------3-----------------------|

-2-----3-----2--2h3p2---------------------------------|
-----------------------3--------------2--2h3p2-----0--|
--------------------------0--------2------------2-----|
-0--0-----0---------------------2--------2------------|
-----------------------------0------------------------|
------------------------------------------------------|

--------------2-----------------------3--------|
-----------2-----2-----------------------3-----|
-------4------------4-----------------------0--|
----4------------------4--------0--------------|
-2---------------------------2-----2-----------|
--------------------------3--------------------|

Chorus – (clean)
-2------------------0------------|
-3--------0---------3---------0--|
-2--------3---------4---------4--| Strum
-0--------4---------4---------5--| Chords
----------4---------2---------5--|
----------2-------------------3--|
The go into the verse
Dirty Chorus -
---------------------------------|
---------------------------------|
--------------------4------------| Strum
-7--------4---------4---------5--| Chords
-5--------4---------2---------5--|
----------2-------------------3--|
Bridge – (listen to song for strumming) “Sad eyes follow me”
---------------------------------------------------------|
---------------------------------------------------------|
---------4-----------------7-----------------4-----------|
-2-------4--------7--------7--------7--------4--------5--|
-2-------2--------7--------5--------7--------2--------5--|
-0----------------5-----------------5-----------------3--|
Interlude -
(Violins)
------------------------------------------|
------------------------------------------|
------4~~------2~~------------------------|
-4~~----------------5~---4~~--------------|
-------------------------------4~~---5~~--|
------------------------------------------|
(Guitar)
-2-----------------0-------------------3--|
-3-----------------3-------------------3--|
-2-----------------4-------------------0--|
-0-----------------4-------------------0--|
-------------------2-------------------2--|
---------------------------------------3--|
Play clean chorus chords
Then dirty chorus
Then end on the verse riffs




Ваше мнение



Капча