X===============================PLEASE NOTE==============================X
X This tab is all my own and represents my interpretation of the song. X
X You may only use this tab for private study, scholarship, or research. X
X Do not change, deface, mutilate, or in any other way alter this tab. X
X You must email me first if you want to use this tab on your site. X
X========================================================================X
*One*
Transcribed by [email protected]
Http://home.san.rr.com/obscured
Tuning: E A D G B E
INTRO/VERSE
|----------------------------------(0-0-0-0)--------|
|----------------------------------(0-0-0-0)--------|
|-----------------------------------9-9-9-9(8-8-8-8)|
|---------------------11-11-9-11-14-9-9-9-9-9-9-9-9-|
|-7-7-7-6-6-6-6h7p64-0--0--0-0--0--7-7-7-7-9-9-9-9-|
|-9-9-9-9-9-9-----------------------0-0-0-0-7-7-7-7-|
...........
PRECHORUS - Play verse
CHORUS
|---------------------|
|---------------------|
|-4---------6---------|
|-4----4----6----6----|
|-2----4----4----6----|
|------2---------4----|
VERSE 2 - Same
PRECHORUS 2
|-----------------------|
|-----------------------|
|-------------9---------|
|-11----11----9----9----|
|-11----0-----7----9----|
|-9-----------0----7----|
CHORUS 2 - Same
INTERLUDE
Guitar 1 - With distortion x2
|-------------------------------------------------|
|-------------------------------------------------|
|-4---------------------6-------------------------|
|-4----------4----------6------------6------------|
|-2----------4----------4------------6------------|
|------------2-----------------------4------------|
|Guitar 2 - Clean x2
|----------------0--------------------------------|
|-------2----------0----------4-------------------|
|-----4--------------3------6-------------6---5---|
|---4---------------------6-----------------------|
|-2------------4--------4-------------------------|
|------------2-----------------------4------------|
BRIDGE
|--------------------------------------------------------|
|-------4------------4------------4------5-5-5-5-5-5-5-5-|
|---------4------------4------------4----4-4-4-4-4-4-4-4-|
|----------------------------------------2-2-2-2-2-2-2-2-|
|-2-2-2--------1-1-1--------0-0-0--------2-2-2-2-2-2-2-2-|
|----------------------------------------0-0-0-0-0-0-0-0-|
..... ..... .....
CHORUS 3 - Same
OUTRO - Fade out...
|------------------------------------------------------------|
|------------------------------------------------------------|
|-4-----------------------------6----------------------------|
|-4-----------------------------6----------------------------|
|-2----------4-------4-----4----4----------6------6-----6----|
|------2-2-2---2-2-2---2-2-----------4-4-4---4-4-4--4-4------|
..... ..... ... ..... ..... ...




Ваше мнение



Капча