This is the correct way to play Ode. For more creed tabs check out my website at
Www.geocities.com/baddabstabs.
E-------------------------------------------------
B-------------------------------------------------
G------------------------------------------------- X4
D-0-0-0-7-0-6-------0-0-0-7-6-0-4-----------------
A-------------------------------------------------
D-------------------------------------------------
E---------------------------------------------
B---------------------------------------------
G---------------------------------------------
D--0-0-0-7-0-6-0-4-0-5-0-2-0-3-2-1------------ X3
A---------------------------------------------
D---------------------------------------------
E---------------------------------------
B---------------------------------------
G--------------------------------------- X1
D-4-4-0-0-0-0-4-4-0-0-0-0-4-4-4-4-------
A---------------------------------------
D---------------------------------------
E-----------------------------------------------
B-----------------------------------------------
G----------------------------------------------- X6
D-0-0-0-7-0-6-0-4-0-5-0-2-0-3-2-1---------------
A-0-0-0-7-0-6-0-4-0-5-0-2-0-3-2-1---------------
D-0-0-0-7-0-6-0-4-0-5-0-2-0-3-2-1---------------
E-----------------------------------------------------------------------------------
B-----------------------------------------------------------------------------------
G-2---2---2--2--2-----2---4---4---4--4-4--4-6-7---7---7--7-7--7---7-----------------
D-0---0---0--0--0-----0---2---2---2--2-2--2-4-5---5---5--5-5--5---5-----------------
A-0---0---0--0--0-----0---2---2---2--2-2--2-4-5---5---5--5-5--5---5---0-0-----------
D-0---0---0--0--0-----0---2---2---2--2-2--2-4-5---5---5--5-5--5---5---0-0-----------
E----------------------------------------------------------------------------------
B----------------------------------------------------------------------------------
G----------------------------------2---2---2--2---2--4--4---4--4-4--4-6------------
D------------4---------------------0---0---0--0---0--2--2---2--2-2--2-4------------
A-5------3-5---5------3-5-7-3------0---0---0--0---0--2--2---2--2-2--2-4------------
D----0-0----------------------3h4--0---0---0--0---0--2--2---2--2-2--2-4------------




Ваше мнение



Капча