Author/Artist: Creed
Title: My Sacrifice
Album: Weathered
Transcribed by: Pete
Email: slipknot 0863616 (AIM)
D A D G B E normal Tremonti tuning. This took me forever.
During the chorus he has another guitar playing in harmony and during the interl
Ude.
Im giving you what Tremonti plays.
-----------------|----------------------|-------------------------------------
-----------------|----10-------10-------|-------------------------------------
-----4-----5-4---|-------11-------11----|-----7-6-6-7-7---7-7-6-6-11-11--11---
-------2-------2-|----------12-------12-|-----x-x-x-x-x---x-x-x-x-x--x---x----
---2-----2-------|-10-------------------|-----5-4-4-5-5---5-5-4-4-9--9---9----
-----------------|----------------------|-0-0---------------------------------
Intro/Clean
------|------|-------------------------|-----------|---|----------------------
------|------|-------------------------|-----------|---|----------------------
-12---|------|-7-6-6-7-7---7-7---6-7-7-|-7-/-9-\-7-|-6-|----------------------
-x----|------|-x-x-x-x-x---x-x---x-x-x-|-x-/-x-\-x-|-x-|-4-4-4-4-4-4--4-/-12--
-10---|------|-5-4-4-5-5---5-5---4-5-5-|-5-/-7-\-5-|-4-|-2-2-2-2-2-2--2-/-10--
----0-|-12/1-|-------------------------|-----------|---|----------------------
Intro Verse/Distortion
----------------------------------------|--------h----------------------------
----------------------------------------|-------7-8-10-8----------------------
----------------------------------------|-------0-0-0-0-0---6-6-6-6-6-6-6-6---
-12-12-12-12-12-12-12-12-12-12-12-12-12-|-0-0-0-0-0-0-0-0---x-x-x-x-x-x-x-x---
-10-10-10-10-10-10-10-10-10-10-10-10-10-|-0-0-0-0-0-0-0-0---4-4-4-4-4-4-4-4---
----------------------------------------|-0-0-0-0-0-0-0-0---------------------
Chorus/Distortion
-------------------------------------|----------------------------------------
-------------------------------------|----------------------------------------
-----------------------------p-------|-11/-9--9-9---9-/-7--7-7---7-/-6--6-6---
-4-4-4-4-4-4-4-4---5-5-5---4---3-0-3-|-x-/-x--x-x---x-/-x--x-x---x-/-x--x-x---
-2-2-2-2-2-2-2-2---5-5-5---4---3-0-3-|-9-/-7--7-7---7-/-5--5-5---5-/-4--4-4---
-------------------5-5-5---4---3-0-3-|----------------------------------------
Chorus/Distortion Bridge/Distortion
--------------------------------------------------|---------------------------
--------------------------------------------------|-----------11-8-7----------
-------4-/-6---6-/-7---7-\-6---6-/-9---9-\-7--7-7-|-----------0--0-0----------
-------x-/-x---x-/-x---x-\-x---x-/-x---x-\-x--x-x-|-0-0-0-0-0-0--0-0-0-0-0-0--
-------2-/-4---4-/-5---5-\-4---4-/-7---7-\-5--5-5-|-0-0-0-0-0-0--0-0-0-0-0-0--
--0-0---------------------------------------------|-0-0-0-0-0-0--0-0-0-0-0-0--
| PM | Interlude/Clean
-------------------------------------------------------------------|----------
-------------------------------------------------------------------|----------
---------6-6-6-6-6-6-6-6-------------------------------------------|----------
-0-0-0---x-x-x-x-x-x-x-x---4-4-4-4-4-4-4-4---5-5-5-5-5-5-5-5-5-5-5-|----------
-0-0-0---4-4-4-4-4-4-4-4---2-2-2-2-2-2-2-2---5-5-5-5-5-5-5-5-5-5-5-|----------
-0-0-0---------------------------------------5-5-5-5-5-5-5-5-5-5-5-|----------
------------------------------------------------------------------------------
------------------------------------------------------------------------------
-11/-9--9-9---9-/-7--7-7---7-/-6--6-6----------4-/-6---6-/-7---7-\-6---6-/-9--
-x-/-x--x-x---x-/-x--x-x---x-/-x--x-x----------x-/-x---x-/-x---x-\-x---x-/-x--
-9-/-7--7-7---7-/-5--5-5---5-/-4--4-4----------2-/-4---4-/-5---5-\-4---4-/-7--
------------------------------------------0-0---------------------------------
Bridge/Distortion | P M |
------------|-----------------------------------------------------------------
------------|--12-12-12-12--12-12-12-12---------------------------------------
-9-\-7--7-7-|--x--x--x--x---x--x--x--x----------------------------------------
-x-\-x--x-x-|--10-10-10-10--10-10-10-10---------------------------------------
-7-\-5--5-5-|-----------------------------------------------------------------
------------|-----------------------------------------------------------------




Ваше мнение



Капча