D5 Tuning (low to high) DADADD

Guitar Notation
/= slide up
H= hammer on
P= pull off
P.M.= Palm Mute
B=bend
*=harmonics
Figure 1

D---------------0-----------------------------0--------------
D-----------------0------------------------------------------
A--------4-----------4--------------------12-----12----------
D----------4------------4--------------12-----------12-------
A-----2------2-------------2----0---10------------------10---
D------------------------------------------------------------

Figure 2

D-----------------------------------------------------------
D-----------------------------------------------------------
A------------5--5--4--4-4/5----5--5--4--4-4/9---9/10--------
D------------x--x--x--x-x-x----x--x--x--x-x-x---x--x--------
A------------5--5--4--4-4/5----5--5--4--4-4/9---9/10--------
D------0--0--0--0--0--0-0-0----0--0--0--0-0-0---0--0--------

Figure 3

D-------------------------------------------------------------
D-------------------------------------------------------------
A-----5--5/4--4-4--5-5--4--5-5--5--5--5/4--4-4--5-5--4--5-5--5
D-----x--x-x--x-x--x-x--x--x-x--x--x--x-x--x-x--x-x--x--x-x--x
A-----5--5/4--4-4--5-5--4--5-5--5--5--5/4--4-4--5-5--4--5-5--5
D-----0--0-0--0-0--0-0--0--0-0--0--0--0-0--0-0--0-0--0--0-0--0

D---------0--0-0--0------------------------------
D---------0--0-0--0------------------------------
A-----4---2--2-2--2---/10--10-10-10--10--10-10-10
D-----x---x--x-x--x---/12--12-12-12--12--12-12-12
A-----4---2--2-2--2---/10--10-10-10--10--10-10-10
D-----0---0--0-0--0------------------------------

Figure 4

D----0--0-5H7-5-4-0-0--0--0-0-0--0--0-0------------------------------
D----0--0-0-0-0-0-0-0--0--0-0-0--0--0-0------------------------------
A----0--0-0-0-0-0-0-0--0--0-0-0--0--0-0------------------------------
D----0--0-0-0-0-0-0-0--7--7-7-7--7--7-7--11-11-11H12-12-11H12-12-11-9
A----0--0-0-0-0-0-0-0--4--4-4-4--4--4-4---9--9--9--9--9--9--9--9--9-9
D----0--0-0-0-0-0-0-0--0--0-0-0--0--0-0---9--9--9--9--9--9--9--9--9-9

D----------------------------------------
D----------------------------------------
A----------------------------------------
D--5--5-5-5--5-5----5-3--x--5-3-0-3B--5-3
A--5--5-5-5--5-5----5-3--X--5-3-0-3B--5-3
D--5--5-5-5--5-5----5-3--X--5-3-0-3B--5-3
P.M. ---




Ваше мнение



Капча