Drop D tunning:
DADGBe
Intro and verses:
----------------------------------------------------------------------------
----2-----------------------------------------------------------------------
----3--------0--------------------------------------------------------------
--0-0-------0--0---3-3-3----------------------------------------------------
--0-0---0-1------0-3-3-3-3-5-3----------------------------------------------
0-0-0--------------3-3-3----5-3-0-------------------------------------------
Reapeat throughout the verses
Chorus:
------------------------------------------------------------------------
------------------------------------------------------------------------
5-4-3-------------------------------------------------------------------
3-2-1-------------------------------------------------------------------
3-2-1-------------------------------------------------------------------
3-2-1-------------------------------------------------------------------
Listen to the song for the rythum on the chourus
Play the intro until "Should have been dead on a Sunday morning" That goes like this:(with distortion)
------------------------------------------------------------------------
--2---------------------------------------------------------------------
--3---------------------------------------------------------------------
0-0-3-------------------------------------------------------------------
0-0-3-------------------------------------------------------------------
0-0-3-------------------------------------------------------------------
Listen to that for the rythum also, then play the chourus with distortion
The guitar solo goes like this:(with distortion)
--------------------------------------------------------------------
--------------------------------------------------------------------
--------------------------------------------------------------------
-----------15-------------15---------15--15-15----------------------
12-0-12-13----13--0-12-13----0-12-13-----13-13----------------------
--------------------------------------------------------------------
This is the outro (or when he says "I cried out to God seeking only His dicision" for those who have never heard the song)Listen for the rythum.
----------------------------------------------------------------
--2-------------------------------------------------------------
5-3-------------------------------------------------------------
3-0-3-----------------------------------------------------------
3-0-3-----------------------------------------------------------
3-0-3-----------------------------------------------------------
Play that twice with distortion; and that's pretty much the song. It's
A lot easier than it sounds (except for the fact it's in drop D. That's
A pretty hard key to figure out unless somebody has told you how to tune
The guitar to that. Just tune the 6th string down to a "D" note (about
Half a turn).).




Ваше мнение



Капча