Artist : Creed
song : My Own Prison (Acoustic)
tabbed by : Christian Strowitzki
tuning : Dropped D
you have to figure out when to play wich ending.
intro
-----------------------------------------------------------
----3--3-3-------------------------------------------------
----2--2-2----------0---------5--5------12/11------11/9----
----0--0-0------0h3---3----3--3--3--0-0--------0-0---------
----0--0-0--0h1---------0--3--3--3--0-0-10/9---0-0-9-/7----
----0--0-0-----------------3--3--3--0-0--------0-0---------
verse 1st ending 2nd ending
---------------------------------------|---------------|-------------------
-------3-3-----------------------------|---------------|-------------------
-------2-2----------0---------5--5-5-5-|---------------|-------------------
----0--0-0------0h3---3----3--3--3-3-3-|------------0--|-------------------
----0--0-0--0h1---------0--3--3--3-3-3-|--3h5-3--------|--3h5-3------------
----0--0-0-----------------3--3--3-3-3-|--------5-3----|--------5-3b--0----
chorus
------------------------
------------------------
----5----4----3----2----
----3----2----1----0----
----3----2----1----0----
----3----2----1----0----
bridge 1st ending 2nd ending
--------------------|---------------|-------------------
----3---------------|---------------|-------------------
----2----10----5----|---------------|-------------------
----0----8-----3----|------------0--|-------------------
----0----8-----3----|--3h5-3--------|--3h5-3------------
----0----8-----3----|--------5-3----|--------5-3b--0----
interlude
-----------------------------------------------------------------------------------------
-----------------------------------------------------------------------------------------
--------------10--10------------10--10------------10--10---10--10-10--------10-10--------
----7-----7-8--------8-7----7-8--------8-7----7-8--------8--------------7-8-------8-7----
--------0-----------------0-----------------0-------------------------0------------------
-----------------------------------------------------------------------------------------
played unter interlude (this is also the verse after the interlude)
------------------------
------------------------
----5----5----7----3----
----3----5----7----3----
----3----3----5----1----
----3-------------------




Ваше мнение



Капча