DROP D TUNNING
DADGBE
I don't know if the chords are correct and how mark's play
But i'm sure it's sound good
INTRO/VERSE
E|------------------------------------------------|
B|----------------------------5h6--5p6-----3----1-|
G|--7/2/10--9p7--7-------5h7----------------------|
D|------------------------------------------------|
A|------------------------------------------------|
D|------------------------------------------------|
E|------------------------------------------|
B|--------------------4-----3---------------|
G|--5/10---7--5--3--5---5------2------------|
D|-------------------------------0----------|
A|------------------------------------------|
D|------------------------------------------|
E|----------------------------------------|
B|-6------5h6---3----1h3------------------|
G|----------------------------------------|
D|----------------------------------------|
A|----------------------------------------|
D|----------------------------------------|
PRE CHORUS/STRUM CHORDS
E|-0--------5-------------------------------|
B|-3--------3-------------------------------|
G|-2--------2-------------------------------|
D|-0--------0-------------------------------|
A|-0--------0-------------------------------|
D|-0--------0-------------------------------|
CHORUS/CLEAN
STRUM CHORDS
E|-5-----------------------------------------|
B|-3-----------------------------------------|
G|-2---------9---------7---------------------|
D|-0---------7---------5---------------------|




Ваше мнение



Капча