Artist: Creed
Song: Inside Us All
Album: Human Clay
Written by: Mark Tremonti
Tabbed by: Drew Montgomery
E-mail: [email protected]
Tuning: Drop-D(D-A-D-G-B-E)
Key: h = hammer on, p = pull off, b = bend, ~ = vibrato

Here is the correct way to play Creed's Inside Us All.
There are several parts with layered guitars, and I
will include them all. This song contains an awesome
and very difficult solo, so just be patient.
God bless and rock on!!!

Intro/Verse(clean)

E|-------------------------0-----------------------------|
B|---------------------------0---------------------------|
G|-----------------0-----------0-------------------------|
D|-----4-----5-------5-----------5-----7-----9-----------|
A|-------2-----2-------2-----------------5-----5---------|
D|--2------2-----2-------2----------5------5-----5-------|

E|----------0--------------------------------------------|
B|------------0------------------------------------------|
G|--0-----------0----------------------------------------|
D|----9-----------9----4-----5-----7-----5-----4h5p4-----|
A|------5----------------0-----0-----0-----0-------------|
D|--------5----------0-----0-----0-----0-----0-----0-----|

E|-------------------------------------------------------|
B|-------------------------------------------------------|
G|--------------12-----11----9h11p9---------------------|
D|--4-----5---5/---0-------0-----------------------------|
A|----0-----0--------------------------------------------|
D|------0-----0------0-----------------------------------|

Chorus(distortion)

E|-------------------------------------------------------|
B|-------------------------------------------------------|
G|--5-5-5-5-5-5-5-5-----7-7-7-7-7-7-7-----7--7---7---7---|
D|--5-5-5-5-5-5-5-5-----7-7-7-7-7-7-7-----4----4---5-----|
A|--3-3-3-3-3-3-3-3-0-0-5-5-5-5-5-5-5-0-0-0----0---------|
D|------------------0-0-5-5-5-5-5-5-5-0-0-0----0---------|
pm... pm...
E|---------------------------------------------3---------|
B|-----------------------------------------------3-------|
G|------7-------7--7-------------------5-5-5-------5-----|
D|------5-4-----4--0-----0-------------5-5-5---------5-5-|
A|--0-0-----0---0----0-0-0--0-0-0-0-2--3-3-3-3-------3-3-|
D|--0-0-----0-0-0----0-0-0--0-0-0-0-2--------------------|
pm... pm... pm....... pm.
E|-----------------------------------------------10------|
B|-------------------------------------------------------|
G|------7-7-7-7-7-7-7-----7-7---7---7-----7------11---7-7|
D|------7-7-7-7-7-7-7-----4---4---5-------5-4-------4-0--|
A|--0-0-5-5-5-5-5-5-5-0-0-0---0-------0-0-----0-----0----|
D|--0-0-5-5-5-5-5-5-5-0-0-0---0-------0-0-----0-0---0----|
pm... pm... pm...
E|----------------------------3--------------------------|
B|------------------------------3------------------------|
G|--------------------5-5-5-------5---------7-7-7-7-7-7--|
D|------0-------------5-5-5---------5-5-----7-7-7-7-7-7--|
A|--0-0-0--0-0-0-0-2--3-3-3-3-------3-3-0-0-5-5-5-5-5-5--|
D|--0-0-0--0-0-0-0-2--------------------0-0-5-5-5-5-5-5--|
pm... pm....... pm. pm...
E|-------------------------------------------------------|
B|-------------------------------------------------------|
G|------7-7---7---7-----7-------7-7-7-7-7-7-7-7-7--------|
D|------4---4---5-------5-4-----4-4-4-4-4-4-4-5-5--------|
A|--0-0-0---0-------0-0-----0---0-0-0-0-0-0-0------------|
D|--0-0-0---0-------0-0-----0-0-0-0-0-0-0-0-0------------|

Interlude(Guitar 1)(distortion)

E|--------10-------10-------10-------10-------10---------|
B|-------------------------------------------------------|
G|--11h12----11h12----11h12----11h12----11h12------------|
D|----------------------------------------------------3--|
A|------------------------------------------------0-0-3--|
D|------------------------------------------------0-0-3--|
pm.
E|-------------------------------------------------------|
B|------3-----3-----3-----3-----3-----3-----3------------|
G|-------------------------------------------------------|
D|--4h5---4h5---4h5---4h5---4h5---4h5---4h5------------3-|
A|-------------------------------------------------0-0-3-|
D|-------------------------------------------------0-0-3-|
pm.
E|-------------------------------------------------------|
B|-------13b-13b---------------------------------------0-|
G|-----0-12b-12b-0-12-10--------------10----10----10-----|
D|------------------------------------10-12----12----12~-|
A|--0---------------------0-0-0-0-0-0--------------------|
D|--0---------------------0-0-0-0-0-0--------------------|

Interlude(Guitar 2)(distortion)

E|-------------------------------------------------------|
B|-------------------------------------------------------|
G|----------------------7-7-7-7-7-7-7-7-7-7-7------------|
D|----------------------4-4-4-4-4-5-5-5-5-5-5------------|
A|--2-----5-----0-------0-0-0-0-0-0-0-0-0-0-0-0-0--------|
D|--2-----5-----0-------0-0-0-0-0-0-0-0-0-0-0-0-0--------|

E|-------------------------------------------------------|
B|--3------3---------------3------3----------------------|
G|--2------2---------------2------2----------------------|
D|--0------0---------------0------0----------------------|
A|--0------0------0--3-----0------0----------------------|
D|--0------0------0--3-----0------0----------------------|
pm.
Bridge(distortion)

E|-------------------------------------------------------|
B|-----------------------------------------3-3-3---------|
G|--5-5-5-5-5-5-5-5------------------------2-2-2---------|
D|--5-5-5-5-5-5-5-5-----7-7-7-7-7-7-7------0-0-0---------|
A|--3-3-3-3-3-3-3-3-0-0-5-5-5-5-5-5-5-0-3--0-0-0-0-0-0-3-|
D|------------------0-0-5-5-5-5-5-5-5-0-3--0-0-0-0-0-0-3-|
pm... pm.....
E|-------------------------------------3-----------------|
B|--3-3-3----13b-------------------------3---------------|
G|--2-2-2----12b-10----10~-----5-5-5-------5-------------|
D|--0-0-0-----------12-----12--5-5-5----------5-5--------|
A|--0-0-0--0-------------------3-3-3-3--------3-3-0-0----|
D|--0-0-0--0--------------------------------------0-0----|
pm. pm...
E|-------------------------------------------------------|
B|-------------------------------------------------------|
G|--7-7-7-7----------------------------------------------|
D|--7-7-7-7----------------------------------------------|
A|--5-5-5-5--0-0-0--3------------------------------------|
D|--5-5-5-5--0-0-0--3------------------------------------|
pm...
Solo(distortion)

E|-------------------------------------------------------|
B|-------------------------------------------------------|
G|--5-5-5-5-5-5-5-------7-7-7-7-7-7-7--------------------|
D|--5-5-5-5-5-5-5-------7-7-7-7-7-7-7--------------------|
A|--3-3-3-3-3-3-3--0-0--5-5-5-5-5-5-5--0-0---------------|
D|-----------------0-0--5-5-5-5-5-5-5--0-0---------------|
pm... pm...
E|-------------------------------------------------------|
B|--20p18--18-20p18-22p18-20p18--18-20p18--18-20p18------|
G|-------19--------------------19--------19--------19----|
D|-------------------------------------------------------|
A|-------------------------------------------------------|
D|-------------------------------------------------------|

E|-------------------------------------------------------|
B|--18-20p18-22p18-20p18--18-20p18--18-20p18-22p18-20p18-|
G|----------------------19--------19---------------------|
D|-------------------------------------------------------|
A|-------------------------------------------------------|
D|-------------------------------------------------------|

E|-------------------------------------------------------|
B|----18-20p18--18-20p18--18-20p18-22p18-20p18-----------|
G|--19--------19--------19--------------------19--19--19-|
D|-------------------------------------------------------|
A|-------------------------------------------------------|
D|-------------------------------------------------------|

E|-------------------------------------------------------|
B|--------------18------------------18-------18p17-------|
G|--19~-19-17-19--19-17-19--19-17-19--19-17-------19-17--|
D|-------------------------------------------------------|
A|-------------------------------------------------------|
D|-------------------------------------------------------|

E|-------------------------------------------------------|
B|----17-18p17--------17-18p17--------17-18p17-----------|
G|--19--------19-17-19--------19-17-19--------19-17-19---|
D|-------------------------------------------------------|
A|-------------------------------------------------------|
D|-------------------------------------------------------|

E|-------------------------------------------------------|
B|--17-18p17-----------17--------17-18p17--------18p17---|
G|----------19-17-19-17--19p17-19--------19-17-19--------|
D|-------------------------------------------------------|
A|-------------------------------------------------------|
D|-------------------------------------------------------|

E|-------------------------------------------------------|
B|----------17-18p17--------17-18p17--------17-18p17-----|
G|--19-17-19--------19-17-19--------19-17-19-------------|
D|-------------------------------------------------------|
A|-------------------------------------------------------|
D|-------------------------------------------------------|

E|-------------------------------------------------------|
B|----------17-18p17--------17-18p17--------17-18p17-----|
G|--19-17-19--------19-17-19--------19p17-19-------------|
D|-------------------------------------------------------|
A|-------------------------------------------------------|
D|-------------------------------------------------------|

E|-------------------------------------------------------|
B|----------17----------13b------------------------------|
G|--19-17-19------------12b------------------------------|
D|-------------------------------------------------------|
A|-------------------------------------------------------|
D|-------------------------------------------------------|

Outro(distortion)

E|-------------------------------------------------------|
B|--3-3-------3-3-----3-3-3--0---------------------------|
G|--2-2-------2-2-----2-2-2--0---5-5-5-5-5-5-5-5---------|
D|--0-0-------0-0-----0-0-0------5-5-5-5-5-5-5-5---------|
A|--0-0--0-0--0-0-0-0-0-0-0------3-3-3-3-3-3-3-3--0-0----|
D|--0-0--0-0--0-0-0-0-0-0-0-----------------------0-0----|
pm... pm... pm...
E|-------------------------------------------------------|
B|-------------------------------------------------------|
G|----------------------------------10-------------10----|
D|--7-7-7-7-7-7-7-7--------10h12----10-------10-12----12-|
A|--5-5-5-5-5-5-5-5-0-0-0-----------------0--------------|
D|--5-5-5-5-5-5-5-5-0-0-0-----------------0--------------|
pm. pm...

This tab goes out to jerrycantrell. Hope you like it!!!




Ваше мнение



Капча