Dropped-D Tuning (DADGBE)
M - palm muting
/ - slide

VERSE
D F(maj7)/D E/D
E------------------------------------------------------------------|
B------------------------------------------------------------------|
G-7---7--7--7--7--10-10-10-10-10-10-9--9---9--10-9--9---9--9--9--9-|
D-4---4--4--4--4--7--7--7--7--7--7--6--6---6--7--6--6---6--6--6--6-|
A-5---5--5--5--5/-8--8--8--8--8--8/-7--7---7--8/-7--7---7--7--7--7-|
D-0---0--0--0--0--0--0--0--0--0--0--0--0---0--0--0--0---0--0--0--0-|

D F(maj7)/D E/D
E---------------------------------------------|
B---------------------------------------------|
G-7---7--7--7--7--10-10-10-10-10-10-9--9------|
D-4---4--4--4--4--7--7--7--7--7--7--6----6----|
A-5---5--5--5--5/-8--8--8--8--8--8/-7------7--|
D-0---0--0--0--0--0--0--0--0--0--0--0---------|

CHORUS
D G Em/G G
E-----------------------------------------------------|
B-----------------------------------------------------|
G-----------------------------------------------------|
D-0--0-0--0-0--0-0--0-0-0-0-5--5-5--5-5--5-5--5-5-5-5-|
A-0--0-0--0-0--0-0--0-0-0-0-5--5-5--5-7--5-5--5-5-5-5-|
D-0--0-0--0-0--0-0--0-0-0-0-5--5-5--5-5--5-5--5-5-5-5-|

B F/B B E B/E E
E-----------------------------------------------------|
B-----------------------------------------------------|
G-----------------------------------------------------| 2x
D-9--9-9-9--9-9--9-9-9-9--2--2-2--4--2-2--2-2-2-2-(1)-|
A-9--9-9-10-9-9--9-9-9-9--2--2-2--2--2-2--2-2-2-2-(1)-|
D-9--9-9-9--9-9--9-9-9-9--2--2-2--2--2-2--2-2-2-2-(1)-|

BRIDGE
D F E D#
M..
E-----------------------|
B-----------------------|
G-----------------------| 4x
D-0--------0--0-0-3-2-1-|
A-0--0-----0--0-0-3-2-1-|
D-0--0-0-0-0--0-0-3-2-1-|

INTERLUDE
E---------------------------------|
B---------------------------------|
G---------------------------------| 4x then 8x at a hell of alot faster
D---------------------------------|
A---8-7---6-7---6-5---3-5-------8-|
D-0-----0-----0-----0-----0-0-0---|

-Lyrics-
Only in America
We're slaves to be free
Only in America we kill the unborn
To make ends meet
Only in America
Sexuality is democracy
Only in America we stamp our god
"In God we trust"
What is right or wrong
I don't know who to believe in
My soul sings a different song
In America
Church bell's ringing
Pass the plate around
The choir is singing
As their leader falls to the ground
Please Mr. prophet man
Tell me which way to go
I gave my last dollar
Can I still come to your show
What is right or wrong
I don't know who to believe in
My soul sings a different song
In America
I am right and you are wrong
I am right and you are wrong
I am right and you are wrong
No one's right and no one's wrong
In America




Ваше мнение



Капча