artist:creed
song:in america
album:my own prison
tabbed by [email protected]
Tuning- DADGBe
Intro / Verse I 5x
e---------|-----------------------------------------------|
B---------|-----------------------------------------------|
G---------|--7----/10---/9---10-/9-----7----/10----9------|
D---------|--4----/7----/6---7--/6-----4----/7-------6----|
A-(5-5-5)-|--5----/8----/7---8--/7-----5----/8---------7--|
D-(0-0-0)-|--0----/0----/0---0--/0-----0----/0------------|
Verse II (end w/ before chorus)
e-------------------------------------------------------|
B-------------------------------------------------------|
G--7----/10---/9---10-/9-----7----/10---/9-x---9---9-9--|
D--4----/7----/6---7--/6-----4----/7----/6-x---6---6-6--|
A--5----/8----/7---8--/7-----5----/8----/7-x---7---7-7--|
D--0----/0----/0---0--/0-----0----/0-----0-x---0---0-0--|
Chorus 2x W/ Dist.
e------------------------------|---------|------------------|
B-2-----8-----------5----------|---------|------------------|
G-3-----7-----4-----4----------|--Verse--|-xxxxxx---Chorus--|
D-0-----5-----4-----2-----2-1--|----3x---|-xxxxxx-----2x----|
A-0-----5-----2-----2-----2-1--|---------|-xxxxxx-----------|
D-0-----5-----x-----2-----2-1--|---------|-xxxxxx-----------|
Riff A
4x (02:33)
e----------------------------|-----------------
B----------------------------|-----------------
G-----7-xx-77(7)-------------|--7--7--77~ -----
D--0--7-xx-77-0-0--10--9--8--|--0--7--00~ -----
A--0--5-xx-55-0-0---8--7--6--|--0--5--00~ -----
D--0--0-xx-00-0-0---x--x--x--|--0--0--00~ -----
Riff B
4x (02:33)
e-----------------------------|-------------------
B-----------------------------|-------------------
G-----7-xx-77-----------------|-(7)(7)(7 7)~ -----
D--0--7-xx-77-0-0-------------|--0--7--0-0-~ -----
A--0--5-xx-55-0-0---15-14-13--|--0--5--0-0-~ -----
D--0--0-xx-00-0-0---15-14-13--|--0--0--0-0-~ -----
(background guitar noise... @ approx. 02:53)
e--------------------------------------
B----6x--------------------------------
G----5x-----------5h7---5--7v~ --------
D----0x------5h7-----------------------
A--------------------------------------
D--------------------------------------
4x
e--------------------------------------------
B--------------------------------------------
G--------------------------------------------
D--------------------------------------------
A--------------------------------------------
D--0-15-14-0-13-14-0-13-12-0-10-12-0-0-0-15--
Twice as fast.
7x
e--------------------------------------------
B--------------------------------------------
G--------------------------------------------
D--------------------------------------------
A--0-15-14-0-13-14-0-13-12-0-10-12-0-0-0-15--
D--0-15-14-0-13-14-0-13-12-0-10-12-0-0-0-15--




Ваше мнение



Капча