Drop D tuning (low to high) DADGBE

Guitar notation
/=slide
H=hammer on
P=pulloff
P.M.=Palm mute
~=vibrato
(1/2)= 1/2 step bend

Figure 1

E------------------------------------------------------------------------------
B------------------------------------------------------------------------------
G----7--9-9--9/11-11--9-11-11/12--9--9-9--9--9-11-11-11P9P7-9--9--9-11-9-7-7--7
D----0--0-0--0-----0--0--0--0-----0--0-7--7--7--7--7--7-----7--7--7--7-7-0-0--5
A----0--0-0--0-----0--0--0--0-----0--0-7--7--7--7--7--7-----7--7--7--7-7-0-0--5
D----0--0-0--0-----0--0--0--0-----0--0-7--7--7--7--7--7-----7--7--7--7-7-0-0--5

E------------------------------------------------------------------------------
B------------------------------------------------------------------------------
G--7-9--9--7--7-7-7-------12-11--11-11-9-11-11-9-7--7-7------------------------
D--5-5--5--5--5-5-5--0-0---0--0---0--0-0--0--0-0-0--0-0------------------------
A--5-5--5--5--5-5-5--0-0---0--0---0--0-0--0--0-0-0--0-0------------------------
D--5-5--5--5--5-5-5--0-0---0--0---0--0-0--0--0-0-0--0-0------------------------

Figure 2

E----5----0---X--X---------------------------------
B----3----3---X--X---------------------------------
G----2----2---X--X----------------7--7-7-7--7-7-7-7
D----0----0---X--X---4/5-X-X------7--7-7-7--7-7-7-7
A----0----0---X--X---4/5-X-X-4/5--5--5-5-5--5-5-5-5
D----0----0---X--X---0---X-X-4/5--5--5-5-5--5-5-5-5

Figure 3

E----5----0---X--X------------------------0----------0------
B----3----3---X--X----------------------------0--------0----
G----2----2---X--X----------------7--7-7--------7--------7--
D----0----0---X--X---4/5-X-X------7--7-7----------7--------7
A----0----0---X--X---4/5-X-X-4/5--5--5-5--------------------
D----0----0---X--X---0---X-X-4/5--5--5-5--------------------

Figure 4

E------------------------------------------------------------------------
B---------------------------------------8-8-8-8-8-8-8-8-8-8-8-8-8-8-8-8-8
G-------7-7-7-7-7-7-7-7-7-7-7-7-7-7-7-7-7-7-7-7-7-7-7-7-7-7-7-7-7-7-7-7-7
D-------4-4-4-4-4-4-4-4-4-4-4-4-4-4-4-4-5-5-5-5-5-5-5-5-5-5-5-5-5-5-5-5-5
A-------4-4-4-4-4-4-4-4-4-4-4-4-4-4-4-4-5-5-5-5-5-5-5-5-5-5-5-5-5-5-5-5-5
D-------4-4-4-4-4-4-4-4-4-4-4-4-4-4-4-4-5-5-5-5-5-5-5-5-5-5-5-5-5-5-5-5-5
P.M.---------------------------------------------------------------------

E------------------------------------------------------------------------
B---------------------------------------8-8-8-8-8-8-8/20-20--20-20-20-20
G-------7-7-7-7-7-7-7-7-7-7-7-7-7-7-7-7-7-7-7-7-7-7-7/19-19--19-19-19-19
D-------4-4-4-4-4-4-4-4-4-4-4-4-4-4-4-4-5-5-5-5-5-5-5/17-17--17-17-17-17
A-------4-4-4-4-4-4-4-4-4-4-4-4-4-4-4-4-5-5-5-5-5-5-5/17-17--17-17-17-17
D-------4-4-4-4-4-4-4-4-4-4-4-4-4-4-4-4-5-5-5-5-5-5-5/17-17--17-17-17-17
P.M.----------------------------------- ~~~~~~~~~~~~

Figure 5

E-----------------------------------------------------------------------
B-----------------------------------------------------------------------
G----------------------------7---7--------6-7-9-7P6-7~~~~~~-------------
D---7--7-7--7---7-7-7-7---0--5---5---0------------------------0-0-------
A---5--5-5--4---4-4-4-5P4-0--5---5---0------------------------0-0-------
D----------------------------5---5---0----------------------------------

E-----------------------------------------------------------------------
B-----------------------------------------------------------------------
G-----------------------7---7-------------------------------------------
D-----7---7-7-7-7---0---5---5---0----4(1/2)(4)P0------------------------
A-----4---4-4-4-5P4-0---5---5---0---------------------------------------
D-----------------------5---5---0---------------------------------------

E-----------------------------------------------------------------------
B-----------------------------------------------------------------------
G----------------------------7---7--------6-7-9-7P6-7~~~~~~-------------
D---7--7-7--7---7-7-7-7---0--5---5---0------------------------0-0-------
A---5--5-5--4---4-4-4-5P4-0--5---5---0------------------------0-0-------
D----------------------------5---5---0----------------------------------

E-----------------------------------------------------------------------
B-----------------------------------------------------------------------
G------------------------------7---7------------------------------------
D-----7--7-7--7---7-7-7-7---0--5---5---0--------------------------------
A-----5--5-5--4---4-4-4-5P4-0--5---5---0--------------------------------
D------------------------------5---5---0--------------------------------




Ваше мнение



Капча