------------------------------------------------------------
Higher Intro (Real Version) - Creed
------------------------------------------------------------
By:Creed
Written By: Mark Tremonti
Album: Human Clay
Tabbed By: IcEmAn (Tom M.) |7th Dimension|

e|---------------------------------------------------------
B|---------------------------------------------------------
G|-777/99/11119/11/12999/11-11-9h11p9h11p9h11-1111977/
D|-000-00-0-0--0-0--0--000-0--0---0-0--0-0--0-0--0-0--0-00-
A|-000-00-0-0--0-0--0--000-0--0---0-0--0-0--0-0--0-0--0-00-
D|-000-00-0-0--0-0--0--000-0--0---0-0--0-0--0-0--0-0--0-00-

e|---------------------------|
B|---------------------------|
G|-9977-7777/121211/121211|
D|-00-00-0000-0-0--0--0-0--0-|
A|-00-00-0000-0-0--0--0-0--0-|
D|-00-00-0000-0-0--0--0-0--0-|




Ваше мнение



Капча