Band:Creed
Song: Hemroids
tabbed:Fernando Delgado
Tune to E flat
(Clean Tone)
Let Ring........................
-----0---------------0----------|
-0h2-----0-------0h2-----0------|
-------3---------------3--------|
-----------2~~~------------2~~--|
--------------------------------|
--------------------------------|
Riff 1
Distortion w/slight delay and flange
------------------------------------|
------------------------------------|
------------------------------------|
-7-7-7-5-7--x-x--------7-7-5-7--x-x-|
-7-7-7-5-7--x-x--7--3--7-7-5-7--x-x-|
-5-5-5-3-5--x-x--5-----5-5-3-5--x-x-|
Repeat Riff 1 four times
Clean Tone
Let Ring.............................
-------------------------------------|
-------------------------------------|
-----0----0---0--------0-----0---0---|
---3-----2------3----3-----2-------3-|
-5-----4----5------5-----4-----5-----|
-------------------------------------|
Let Ring........................
--------------------------------|
--------------------------------|
-----3---------0-----------0----|
---5---5---8-6---2-------3------|
-7-------7-------------5--------|
-------------------1-0----------|
Let Ring...
-------5---|
-----3-----|
---2-------|
-0---------|
-----------|
-----------|




Ваше мнение



Капча