All I have figured out so far is the main riff....I don't know how right it is...But it sounds good.Any questions or comments [email protected]
[email protected]------------------
B----------------------------------------------------------------------------------
G----------------------------------------------------------------------------------
D----------------------3-----------------------3----------------------3------------
A-0------3-5--0----3-5----0------3-5--0----3-5---0------3-5--0----3-5---0-----3-5--
D-0--3-5------0--5--------0--3-5------0--5-------0--3-5------0--5-------0-3-5------
*
E-----------------------|
B-----------------------|
G-----------------------|
D-6p5p0-5p3p0-----------|
A-------------5p3p0-----|
D-----------------------|
Reapeat first line then....
E-------------------------------------|
B-------------------------------------|
G-------------------------------------|
D-6b-6b-5h6p5-3h5p3-0h3p0-------------|
A-------------------------5p3h5-------|
D-------------------------------------|




Ваше мнение



Капча