Artist: Creed
Song: Freedom Fighter
Album: Weathered
Written by: Mark Tremonti and Scott Stapp
Tabbed by: Drew Montgomery
Tuning: Drop-D(D-A-D-G-B-E)
Key: x or . = palm mute, b = bend, h = hammer on, p = pull off

This song isn't too difficult, but it's quite fun to play.
God bless and rock on!!!

Intro(distortion)

E|------------------------------------------------------------|
B|------------------------------------------------------------|
G|------------------------------------------------------------|
D|----------------------------------3-----------------------3-|
A|----------------------3-----0-3-5-------------3-----0-3-5---|
D|--x-x-x-x-x--0--0-3-5----0-----------0--0-3-5----0----------|

E|------------------------------------------------------------|
B|------------------------------------------------------------|
G|------------------------------------------------------------|
D|-----------------------3-----------0--5b-5b-5b-5p3---3------|
A|-----------3-----0-3-5-----------------------------5---5-3--|
D|--0--0-3-5----0-----------0--0-3-5--------------------------|

Verse(distortion)

E|------------------------------------------------------------|
B|------------------------------------------------------------|
G|------------------------------------------------------------|
D|-----------------------3-----------------------3------------|
A|-----------3-----0-3-5-------------3-----0-3-5--------------|
D|--0--0-3-5----0-----------0--0-3-5----0---------------------|
..............................................
E|------------------------------------------------------------|
B|------------------------------------------------------------|
G|------------------------------------------------------------|
D|--------------5b-5b-5p3---3---------------------------------|
A|-----------0------------5---5--3----------------------------|
D|--0--0-3-5--------------------------------------------------|
..........
Chorus(distortion)

E|------------------------------------------------------------|
B|--3-3-3-----------------------------------------------------|
G|--2-2-2-5-5-5-4-4-4-7-7-6-5-5-5-9-9-9-4-4-----7-5---5--5----|
D|--0-0-0-5-5-5-5-5-5-5-5-4-3-3-3-7-7-7-2-2-----5-3-0-3--3----|
A|--0-0-0-3-3-3-2-2-2-5-5-4-3-3-3-7-7-7-2-2-----5-3-0-3--3----|
D|--0-0-0-------------5-5-4-3-3-3-7-7-7-2-2--0--5-3-0-3--3----|
.
Interlude(distortion)

E|------------------------------------------------------------|
B|--3-------3-------3-----------------------------------------|
G|--2-------2-------2-----------------------------------------|
D|--0--0-0--0--0-0--0--0-0---10-7-0-5-8-5---------------------|
A|--0--0-0--0--0-0--0--0-0---10-7-0-5-8-5--0--0-0--0--0-0-----|
D|--0--0-0--0--0-0--0--0-0---10-7-0-5-8-5--0--0-0--0--0-0-----|
... ... ... ..............
E|------------------------------------------------------------|
B|------------------------------------------------------------|
G|------------------------------------------------------------|
D|---------------------------10-7-0-5-8-5---------------------|
A|--0--0-0--0--0-0--0--0-0---10-7-0-5-8-5--0--0-0--0--0-0-----|
D|--0--0-0--0--0-0--0--0-0---10-7-0-5-8-5--0--0-0--0--0-0-----|
...................... ..............
E|------------------------------------------------------------|
B|------------------------------------------------------------|
G|------------------------------------------------------------|
D|-------------10-7-0-5-8---10-7-0-5-8---10-7-0-5-8-5---------|
A|--0--0-0--0--10-7-0-5-8---10-7-0-5-8---10-7-0-5-8-5---------|
D|--0--0-0--0--10-7-0-5-8-0-10-7-0-5-8-0-10-7-0-5-8-5---------|
.........
Bridge(distortion)

E|------------------------------------------------------------|
B|------------------------------------------------------------|
G|--2-------------2-------------2-------------3--3--3---------|
D|--0--0h1p0------0--0h1p0------0--0h1p0------1--1--1---------|
A|--0--------3p0--0--------3p0--0--------3p0--1--1--1---------|
D|--0-------------0-------------0-------------1--1--1---------|

E|------------------------------------------------------------|
B|------------------------------------------------------------|
G|--2-------------2-------------2-------------3--3--5---------|
D|--0--0h1p0------0--0h1p0------0--0h1p0------1--1--3---------|
A|--0--------3p0--0--------3p0--0--------3p0--1--1--3---------|
D|--0-------------0-------------0-------------1--1--3---------|

Outro(guitar 2)(distortion)

E|------------------------------------------------------------|
B|----------------------------------3-------------------------|
G|--7--5-----5--5---7--5-----5--5---2-------------------------|
D|--5--3--0--3--3---5--3--0--3--3---0-------------------------|
A|--5--3--0--3--3---5--3--0--3--3---0-------------------------|
D|--5--3--0--3--3---5--3--0--3--3---0-------------------------|
. .
Outro(guitar 2)(distortion with wah-wah)

E|------------------------------------------------------------|
B|------------------------------------------------------------|
G|------------------------------------------------------------|
D|--5p3-0-3p0----5p3-0-3p0----5p3-0-3p0-----------------------|
A|------------3------------3------------3---------------------|
D|------------------------------------------------------------|

Peace, love, and chicken to ya!!!




Ваше мнение



Капча