Intro / Verse
Play 7x Finger Picking
D--7p0--------0---------------------------------
D--0----8\10-----10-----------------------------
A--------------------0--9h10--10\12-12----------
D--------------------------------------0--------
A-----------------------------------------0-----
D--0--------------------0--------------------0--
8th Time
D--7p0--------0--------------------------------
D--0----8\10-----10----------------------------
A--------------------0--9h10-10p9--9-----------
D-------------------------------------0--------
A----------------------------------------0-----
D--0--------------------0-------------------0--
Chorus
Play 2x
D--0--0-0-0--0-0-0-0--5-0-0--5--5-5-5--5-5-5/4\5-5/7-7-7\4--4-4--4-
D--0--0-0-0--0-0-0-0--5-0-0--0--0-0-0--0-0-0-0-0-0-0-0-0-0--0-0--0-
A--5--5-5-5--5-5-5-5--5-5-0--0--0-0-0--0-0-0-0-0-0-0-0-0-0--0-0--0-
D--5--5-5-5--5-5-5-5--5-5-0--0--0-0-0--0-0-0-0-0-0-0-0-0-0--0-0--0-
A--3------3--------3--3------0------0--0-----0-0-0-0-0-0-0--0-0--0-
D--x------x--------x---------5------5--5----/4\5-5/7-7-7-0--0-0--0-
D--5\4-4-4-4-4-4--4-4--4-5\4-4-4-4-4-4--4-4--4--
D--0-0-0-0-0-0-0--0-0--0-0-0-0-0-0-0-0--0-0--0--
A--0-0-0-0-0-0-0--0-0--0-0-0-0-0-0-0-0--0-0--0--
D--0-0-0-0-0-0-0--0-0--0-0-0-0-0-0-0-0--0-0--0--
A--0-0-0-0-0-0-0--0-0--0-0-0-0-0-0-0-0--0-0--0--
D--5\4-4-4-4-4-0--0-0--0-5\4-4-4-4-4-0--0-0--0--
Play 2x
D---------------0-----------0----5--5-5-5--5-5-5/4\5-5/7-7-7\4--4-4--
D-------------0---------------0--0--0-0-0--0-0-0-0-0-0-0-0-0-0--0-0--
A-----------5-------------5------0--0-0-0--0-0-0-0-0-0-0-0-0-0--0-0--
D---------5-------5-----5--------0--0-0-0--0-0-0-0-0-0-0-0-0-0--0-0--
A--(3)-3-------------3-----------0------0--0-----0-0-0-0-0-0-0--0-0--
D--------------------------------5------5--5----/4\5-5/7-7-7-0--0-0--
D--4--5\4-4-4-4-4-4--4-4--4-5\4-4-4-4-4-4--4-4--4--
D--0--0-0-0-0-0-0-0--0-0--0-0-0-0-0-0-0-0--0-0--0--
A--0--0-0-0-0-0-0-0--0-0--0-0-0-0-0-0-0-0--0-0--0--
D--0--0-0-0-0-0-0-0--0-0--0-0-0-0-0-0-0-0--0-0--0--
A--0--0-0-0-0-0-0-0--0-0--0-0-0-0-0-0-0-0--0-0--0--
D--0--5\4-4-4-4-4-0--0-0--0-5\4-4-4-4-4-0--0-0--0--
Play 7x With Pick
D--7p0--------0-------------------------
D-------8\10-----10---------------------
A--------------------0--9h10--10\12-12--
D---------------------------------------
A---------------------------------------
D---------------------------------------
8th Time With Pick
D--7p0--------0-----------------------
D-------8\10-----10-------------------
A--------------------0--9h10-10p9--9--
D-------------------------------------
A-------------------------------------
D-------------------------------------
Chorus
Play 2x
D--0--0-0-0--0-0-0-0--5-0-0--5--5-5-5--5-5-5/4\5-5/7-7-7\4--4-4--4-
D--0--0-0-0--0-0-0-0--5-0-0--0--0-0-0--0-0-0-0-0-0-0-0-0-0--0-0--0-
A--5--5-5-5--5-5-5-5--5-5-0--0--0-0-0--0-0-0-0-0-0-0-0-0-0--0-0--0-
D--5--5-5-5--5-5-5-5--5-5-0--0--0-0-0--0-0-0-0-0-0-0-0-0-0--0-0--0-
A--3------3--------3--3------0------0--0-----0-0-0-0-0-0-0--0-0--0-
D--x------x--------x---------5------5--5----/4\5-5/7-7-7-0--0-0--0-
D--5\4-4-4-4-4-4--4-4--4-5\4-4-4-4-4-4--4-4--4--
D--0-0-0-0-0-0-0--0-0--0-0-0-0-0-0-0-0--0-0--0--




Ваше мнение



Капча