Author/Artist: Creed
Title: Bullets
Album: Weathered
Tuning: Drop D
Transcribed by: Adam Strachn
Email: [email protected]
This is not exact but darn close given the time factor I have had to work with it. I haven't been able to get it exact due to the strange effects and noise in the intro but it's darn close. If anything this should give other people a foundation to build on.
Notes:
Intro - It's really close but probably not exactly how Mark plays it
Verse - Sounds right, sounds awesome. But it’s not perfect yet.
Chorus – Again sounds close but not perfect.
Bridge – Awesome riff, I tried to get it as close as I could.
Interlude – basically the same thing as the intro.
The rest is easy to understand.
Intro -
Guitar 1 -
--------------------------------------------------------------------------|
--------------------------------------------------------------------------|
--------------------------------------------------------------------------|
---0-----0-----0-----0-----0-----0-----0-----0-----0-----0-----0-----0----|
-----0-----0-----0-----0-----0-----0-----0-----0-----0-----0-----0-----0--|
-0-----0-----0-----0-----0-----0-----0-----0-----0-----0-----0-----0------|
Guitar 2 -
--------------------------------------------------------------------------|
--------------------------------------------------------------------------|
--------------------------------------------------------------------------|
-0-0---0-0---0-0---0-0---0-0---0-0---0-0---0-0---0-0---0-0---0-0---0---0--|
-0-0---0-0---0-0---0-0---0-0---0-0---0-0---0-0---0-0---0-0---0-0---0---0--|
-0-0---0-0---0-0---0-0---0-0---0-0---0-0---0-0---0-0---0-0---0-0---0---0--|
Guitar 1 -
--------------------------------------------------------------------------|
--------------------------------------------------------------------------|
--------------------------------------------------------------------------|
---0-----7-----7---------7-----8-----8---------8/5-------5-----5----------|
-----0-----0-----0---0-----0-----0-----0---0-------0---0---0-----0---0----|
-0-----0-----0-----0---0-----0-----0-----0---0-------0-------0-----0---0--|
Guitar 2 -
--------------------------------------------------------------------------|
--------------------------------------------------------------------------|
--------------------------------------------------------------------------|
---7--7--7--7--7--7--7---7---7-8--8--8--8--8---8/5---5---5--5--5--5---5---|
---0--0--0--0--0--0--0---0---0-0--0--0--0--0---0-----0---0--0--0--0---0---|
-0-0--0--0--0--0--0--0---0---0-0--0--0--0--0---0-----0---0--0--0--0---0---|
Guitar 1
--------------------------------------------------------------------------|
--------------------------------------------------------------------------|
--------------------------------------------------------------------------|
----------5-----/8-----8---------7-----7-----7-----0-----0-----0-----0----|
---0--------0------0-----0---0-----0-----0-----0-----0-----0-----0-----0--|
-0---0--0-----0------0-----0---0-----0-----0-----0-----0-----0-----0------|
Guitar 2 -
--------------------------------------------------------------------------|
--------------------------------------------------------------------------|
--------------------------------------------------------------------------|
---5------5----5/8--8--8--8---8--7--7--7--7--7---0--0----0--0--0--0--0-0--|
---0------0----0----0--0--0---0--0--0--0--0--0---0--0----0--0--0--0--0-0--|
---0------0----0----0--0--0---0--0--0--0--0--0---0--0----0--0--0--0--0-0--|
Just repeat that until the verse
Verse – (dirty) When Scott starts to sing Mark palm mutes the riff
------------------------------------------------------------------------------|
------------------------------------------------------------------------------|
------------------------------------------------------------------------------|
-7--0-0-0--5--0-0-0--8--0-0-0--7--0-0-0--10--0-0-0--7--0-0-0--8--7--0-0-0--7--|
-0--0-0-0--0--0-0-0--0--0-0-0--0--0-0-0---0--0-0-0--0--0-0-0--0--0--0-0-0--0--|
-0--0-0-0--0--0-0-0--0--0-0-0--0--0-0-0---0--0-0-0--0--0-0-0--0--0--0-0-0--0--|
Chorus - ”Look at me!”
----------------------------------|
-----------3~~--------------------|
-----------2~~--------------------|
-3-3-3-3---0~~---3-3-3-3--4--3-3--|
-3-3-3-3---0~~---3-3-3-3--4--3-3--|
-3-3-3-3---0~~---3-3-3-3--4--3-3--|
Then play the verse
Then play the chorus
Bridge -
----------------------|-----------------------|------------------------------|
----------------------|-----------------------|------------------------------|
----------------------|-----------------------|------------------------------|
----------------------|-----------------------|-----------------------2-2-2--|
-6b-6-6-6--3-3-3-3-3--|--6b-6-6-6--3-3-3-3-3--|--6b-6-6-6--3-3-3-3-3--2-2-2--|
-0--0-0-0--0-0-0-0-0--|--0--0-0-0--0-0-0-0-0--|--0--0-0-0--0-0-0-0-0--2-2-2--|
Then it goes into a LONG pick scrape
Interlude – “All I want is what’s real . . .”
Guitar 1 -
--------------------------------------------------------------------------|
--------------------------------------------------------------------------|
--------------------------------------------------------------------------|
---0-----7-----7---------7-----8-----8---------8/5-------5-----5----------|
-----0-----0-----0---0-----0-----0-----0---0-------0---0---0-----0---0----|
-0-----0-----0-----0---0-----0-----0-----0---0-------0-------0-----0---0--|
Guitar 2 -
--------------------------------------------------------------------------|
--------------------------------------------------------------------------|
--------------------------------------------------------------------------|
---7--7--7--7--7--7--7---7---7-8--8--8--8--8---8/5---5---5--5--5--5---5---|
---0--0--0--0--0--0--0---0---0-0--0--0--0--0---0-----0---0--0--0--0---0---|
-0-0--0--0--0--0--0--0---0---0-0--0--0--0--0---0-----0---0--0--0--0---0---|
Guitar 1
--------------------------------------------------------------------------|
--------------------------------------------------------------------------|
--------------------------------------------------------------------------|
----------5-----/8-----8---------7-----7-----7-----0-----0-----0-----0----|
---0--------0------0-----0---0-----0-----0-----0-----0-----0-----0-----0--|
-0---0--0-----0------0-----0---0-----0-----0-----0-----0-----0-----0------|
Guitar 2 -
--------------------------------------------------------------------------|
--------------------------------------------------------------------------|
--------------------------------------------------------------------------|
---5------5----5/8--8--8--8---8--7--7--7--7--7---0--0----0--0--0--0--0-0--|
---0------0----0----0--0--0---0--0--0--0--0--0---0--0----0--0--0--0--0-0--|
---0------0----0----0--0--0---0--0--0--0--0--0---0--0----0--0--0--0--0-0--|
Then this -
“Please, help me find it please . . .”
---------------------------------------------------------------------------|
--10-10-10-10-10-10-10--10--10-11-11-11-11-11--11/8---8---8--8--8--8---8---|
---------------------------------------------------------------------------|
---7--7--7--7--7--7--7---7---7--8--8--8--8--8---8/5---5---5--5--5--5---5---|
---0--0--0--0--0--0--0---0---0--0--0--0--0--0---0-----0---0--0--0--0---0---|
-0-0--0--0--0--0--0--0---0---0--0--0--0--0--0---0-----0---0--0--0--0---0---|
---------------------------------------------------------------------------|
---8------8----8---11-11-11--11-10-10-10-10-10-----------------------------|
---------------------------------------------------------------------------|
---5------5----5/8--8--8--8---8--7--7--7--7--7----0--0----0--0--0--0--0-0--|
---0------0----0----0--0--0---0--0--0--0--0--0----0--0----0--0--0--0--0-0--|
---0------0----0----0--0--0---0--0--0--0--0--0----0--0----0--0--0--0--0-0--|
Then it goes into the chorus
Then it goes into the bridge riff –
---------------------|----------------------|-----------------------------|
---------------------|----------------------|-----------------------------|
---------------------|----------------------|-----------------------------|
---------------------|----------------------|----------------------2-2-2--|
-6b-6-6---3-3-3-3-3--|--6b-6-6---3-3-3-3-3--|--6b-6-6---3-3-3-3-3--2-2-2--|
-0--0-0---0-0-0-0-0--|--0--0-0---0-0-0-0-0--|--0--0-0---0-0-0-0-0--2-2-2--|
Last chord -
-----|
-----|
-----|
--0--|
--0--|
--0--|




Ваше мнение



Капча