-------------------------------------------------------------------------------
BOUND AND TIED - CREED
-------------------------------------------------------------------------------
Tabbed by:Jackson Jones
Email:[email protected]
Tuning:DADGBE
figure:1.1(Intro)
E|-------------------|
B|-------------------|
G|-------------------|
D|-------------------|
A|--0------0-0-------|
D|--0-2.7*-0-0-2.7*--|
pm pm..|

figure:1.2
|----------------------------------------------------------------------|r
|----------------------------------------------------------------------|e
|----------------------------------------------------------------------|p
|-3-3-0---------------------------------------------------------3'b0---|e
|-3-3-0--------5-5-5-------------------------5-5-5---------------------|a
|-3-3-0--6-6-6-------6-6-6-5-5-0--3b0--6-6-6-------6-6-6-5-5-0---------|t
pm..| pm....................................................|
(2.7* lies betweenthe 2nd & 3rd fret)
figure:2 (Play each bar 8x)(Pre-Chorus)
E|-----10-|----12-|----13-|----15-|-15b|
B|--10----|-12----|-13----|-15----|-----|
G|--------|-------|-------|-------|-----|
D|--------|-------|-------|-------|-----|
A|--------|-------|-------|-------|-----|
D|--------|-------|-------|-------|-----|
figure:3(Chorus)
E|---------------------------------------------------------------------------
B|---------------------------------------------------------------------------
G|---------8b---7b-----------------8b---7b-------------------8b---7b---------
D|--3-3-0--6b-0-x--0-6-0-5--0-3-0--6b-0-x--0-6-0-5--0-3-3-0--6b-0-x--0-6-0-5-
A|--3-3-0--6b-0-5b-0-6-0-5--0-3-0--6b-0-5b-0-6-0-5--0-3-3-0--6b-0-5b-0-6-0-5-
D|--3-3-0--6b-0----0-6-0-5--0-3-0--6b-0----0-6-0-5--0-3-3-0--6b-0----0-6-0-5-
pm..| pm..|
continued from above
|---------------------------------|r
|---------------------------------|e
|--------8b---7b------------------|p
|-0-3-0--6b-0-x--0-6-0-5--0-3-3-0-|e
|-0-3-0--6b-0-5b-0-6-0-5--0-3-3-0-|a
|-0-3-0--6b-0----0-6-0-5--0-3-3-0-|t
after the chorus there is a series of harmonics like below
E|-----------------------|I think the fist 2 is played by one guitar
B|-----------------------|the next 2 by the 2nd guitar and the
G|-----------------------|2.7* is played in unison
D|-----------------------|
A|-----------------------|
D|--5*-5*-5*-5*--0-2.7*--|
pm
figure:4(Bridge part:1)
E|----------------------------------------------------|r
B|--3--3-3-3-3--3--3-3-3-3--3--3-3-3-3--8-8--6-6-5-6--|e
G|--2--2-2-2-2--2--2-2-2-2--2--2-2-2-2--7-7--5-5---5--|p
D|--0--0-0-0-0--0--0-0-0-0--0--0-0-0-0--0-0--0-0---0--|e
A|--0--0-0-0-0--0--0-0-0-0--0--0-0-0-0--0-0--0-0---0--|a
D|--0--0-0-0-0--0--0-0-0-0--0--0-0-0-0--0-0--0-0---0--|t
figure:5(Bridge part:2)
E|------------------------------------------|r
B|------------------------------------------|e
G|------------------------------------------|p
D|--0--0-0-0--7--7-7-7--7--7---7--5--5-5-4--|e
A|--0--0-0-0--5--5-5-5--4----4----5--5-5-4--|a
D|--0--0-0-0----------------------5--5-5-4--|t
this is played towards the end of the bridge
E|------------------------------------------------
B|------------------------------------------------
G|------------------------------------------------
D|--5--5-5-5--5--5-5-5--5--5-5-5--5--5-5-5/12--12-repeat chord x16
A|--5--5-5-5--5--5-5-5--5--5-5-5--5--5-5-5/10--10-
D|--5--5-5-5--5--5-5-5--5--5-5-5--5--5-5-5--------
Repeat figure:2(Chorus)
figure:3(Pre-Chorus)/figure:1.2(Intro)but with much more effort.
As you can tell this song is written using two guitars.
It can be played with only one guitarist obviously, seems creed only have
one guitarist! but its sounds much better when this song is
played live with the two guitars, the only problem being who gets to play what!
enjoy.
|* harmonic
|' thumb harmonic
|pm palm mutate
| / slide up
| slide down
| b bend
| h hammer-on
| p pull-off
| ~ vibrato
| + harmonic
| x Mute note




Ваше мнение



Капча