Author/Artist: Creed
Title: Beautiful
Album: Human Clay
Transcribed by: Adam Strachn
Email: [email protected]
Tuning: Drop D
This is close as I could get it. It sounds right.
Intro – “She wears a coat of color . . .”
-------------------------------------|---------------------------------|
-------------------------------------|---------------------------------|
-------------------------------------|---------------------------------|
-----3-------3h5-------2-------3-----|------3------3h5------2-------3--|
----------------------------------5--|---------------------------------|
0-0-----0-0-------0-0-----0-0--------|--0-----0-0------0-0----0-0------|
---------------|-----------------------------------------------------------|
---------------|-----------------------------------------------------------|
---------------|--3---3-3----3---3-3----3----------------------------------|
-0-0---3brp0~--|--1---1-1-0--1---1-1-0--1---3------3h5------2------3-------|
-0-0-----------|--1---1-1-0--1---1-1-0--1-----0-0------0-0----0-0-----5v~--|
-0-0-----------|--1---1-1-0--1---1-1-0--1-----0-0------0-0----0-0----------|
Verse –
-------------------------------------|---------------------------------|
-------------------------------------|---------------------------------|
-------------------------------------|---------------------------------|
-----3-------3h5-------2-------3-----|------3------3h5------2-------3--|
----------------------------------5--|---------------------------------|
0-0-----0-0-------0-0-----0-0--------|--0-----0-0------0-0----0-0------|
Chorus –
---------------|-----------------------------------------------------------|
---------------|-----------------------------------------------------------|
---------------|--3---3-3----3---3-3----3----------------------------------|
-0-0---3brp0~--|--1---1-1-0--1---1-1-0--1---3------3h5------2------3-------|
-0-0-----------|--1---1-1-0--1---1-1-0--1-----0-0------0-0----0-0-----5v~--|
-0-0-----------|--1---1-1-0--1---1-1-0--1-----0-0------0-0----0-0----------|
"Stripped Me"
| Play 4x | Play 4x |
-----------|--------------|
-----------|--------------|
-----------|----------7b--|
-0-0--0-0--|--0-0--0------|
-0-0--0-0--|--0-0--0--5b--|
-0-0--0-0--|--0-0--0------|
Bridge - Play 2x (palm mute 0’s) Then this - Repeat 14x
---------------------------------- ---------------------------------|------|
---------------------------------- ---------------------------------|------|
--------19b--------19b-------19b-- ---------------------------------|--19b-|
---------------------------------- --------15b----------15b---------|------|
--------17b--------17b-------17b-- ---------------------------------|--17b-|
-0-0--0-----0-0--0------0-0------- -0-0--0-------0-0--0-----0-0-0-0-|------|
Solo –
Guitar 1 - (rhythm)
-----------------------------------------------------------------------|
-----------------------------------------------------------------------|
-----------------------------------------------------------------------|
-7--7-7--7h9---9-9-9p7--4--4-4-4h5--5-5-5p4-4v--4-4-4h5v--5-5-5p4v--0--|
-5--5-5--5-----5-5-5----2--2-2-2----2-2-2---0---0-0-0-----0-0-0--------|
-5--5-5--5-----5-5-5----2--2-2-2----2-2-2---0---0-0-0-----0-0-0--------|
Guitar 2 - (lead)
------------------------------------14--|
------3-----------8-7--8/10---\7--8-----|
-2/4-----4---7/9------------------------|
----------------------------------------|
----------------------------------------|
----------------------------------------|
Play 14x Then this -
------ ------|
------ ------|
--19-- --0~--|
------ --0~--|
--17-- --0~--|
------ --0~--|




Ваше мнение



Капча