Author/Artist: Creed
Title: Are You Ready?
Album: Human Clay
Transcribed by: Adam Strachn
Tuning: D A D A D D
Email: [email protected]
I am in the process of tabbing out all the other
Creed songs that are worng or not there. I tried to
Make it aseasy to read as I could. The timing is not
Exact either but just listen to the song and you'll get it.
Intro -
----|---------------------------------------------|
----|---------------------------------------------|
----|---------------------------------------------| 5b = full bend
----|---------------------------------------------|
-3--|--5--5--3--5-----5--3-----5----5b---5-----3--|
-0--|--0--0--0--0--0--0--0-----0--0-0----0--0--0--|
---------------------------------------------------------------|
---------------------------------------------------------------|
-----------------------0---------------------------------------|
--------------------------0------------------------------------|
-5--5--3--5---5--0-----------0--1/3--1---3---5--5--3--5--5--0--|
-0--0--0--0---0-----1--------------------0---0--0--0--0--0--0--|
Distortion Kicks in -
------------------|
------------------|
------1-----------|
-1----3--3----5~--|
-1----1--1----3~--|
-1------------0~--|
Verse Riff -
---------------------------------------|
---------------------------------------|
---------------------------------------| Bend = 1/2 step
-7--7--5---7------5---7--7b--7---7--5--|
-5--5--3---5------3---5--5b--5---5--3--|
----0--0---0---0--0---0--0---0---0--0--|
----------------------------------------------------------------|
----------------------------------------------------------------|
----------------------------------------------------------------|
-7--7--5--7---7--0--1---------3--3----5---7--7--5------------5--| Bend = full
-5--5--3--5---5--0--1---1--1--1--3----3---5--5--3---5b~~~----3--|
-0--0--0--0---0--0--1---1--1-----3----0---0--0--0------------0--|
Lead into chorus -
------------------------------------------------|
--------------------------0---------------------|
-----------------------------0------------------|
-7--7--5--7---7---0-------------0---3--3--3--3--|
-5--5--3--5---7---0---1-------------3--3--3--3--|
-0--0--0--0---0---0---1-------------3--3--3--3--|
Chorus -
Are you ready? Are you ready for what's to come?
|-0--0--0--0---0--0--0--0--0---0--0--0--0--|--0---0-0-0--0-0-0-0-0-0-0---5--|
|-3--3--3--3---3--3--3--3--3---3--3--3--3--|--3---3-3-3--3-3-3-3-3-3-3---5--|
|-0--0--0--0---0--0--0--0--0---0--0--0--0--|--0---0-0-0--0-0-0-0-0-0-0---5--|
|-0--0--0--0---0--0--0--0--0---0--0--0--0--|--0---0-0-0--0-0-0-0-0-0-0---5--|
|-3--3--3--3---3--3--3--3--3---3--3--3--3--|--2---2-2-2--2-2-2-2-3-3-3---5--|
|------------------------------------------|-----------------------------5--|
Oh, I said are you
|-0----------------------------------------0--0-0-0-0--------------0--|
|-0----------------------------------------0--0-0-0-0--------------0--|
|-0-------0-------0--------0-------0-------0--0-0-0-0-------0------0--|
|-0--5/7-------------------0-------0----------0-0-0-0-------0---0--0--|
|-0----------7/9--------------9/7------0------0-0-0-0--9/7--0---0--0--|
|-0------------------9/11--------------0------0-0-0-0-------0---0--0--|
Bridge - "Ten, nine, eight . . ." (play a couple times clean, then distorted)
-0----------------------------------------------------------------------------|
-0---7--5--4----------------------------------------------------------4-------|
-0-------------0--2--3--2--0---0------------0----0--------2-----2--3-----3--2-|
-0---------------------------------4--5--4----------4--5-----5----------------|
------------------------------------------------------------------------------|
------------------------------------------------------------------------------|
-0-----------------------------0--------------0-------------------------------|
-0-------7--5--4---------------0--------------0-----------------------4-------|
-0----0------------0--2--3--2--0--0-----------0--0--------2-----2--3-----3--2-|
-0--0--------------------------------4--5--4--------4--5-----5----------------|
-0--0-------------------------------------------------------------------------|
-0----------------------------------------------------------------------------|
"Your life has just begun . . ." (distorted)
----------------------0------|
----------0-----------0------|
--5----3--0--9--0--7--0--10--|
----------0-----0-----0------|
--5----3--0--9--0--7--0--10--|




Ваше мнение



Капча