Song: World of Pain
Artist: Cream
Composer: Felix Pappalardi
Album: Disraeli Gears
Tabber: ecfanrm826
Verse 1
F A F A Dm
Outside my window is a tree
F A F A Dm
Outside my window is a tree
F
There're only four leaves
Pre-Chorus
A E A
And it stands in the gray of the city
A E A
No time for pity for the tree or me
Chorus
There is a world of pain
In the falling rain
Around me
e|----5------------5| the chorus is something like this there's some
B|----5------------5| other stuff in there that I couldn't hear
G|----5------------5|
D|----7-7p5--------7|
A|----7-----7-5----7|
E|----5----------5—5|
Solo
e|----------------------------------------------------------------------|
B|--------------------------12b12b------------12-----------------12-----|b
G|-12-10-12—15b15b15b-151215--------10—12h13p12--13-(12)-12h14p12-------|
D|----------------------------------------------------------------------|
A|----------------------------------------------------------------------|
E|-------------------------------------------------------------------|
e|----------------------------------------------------------------------|
B|----------------------------------------------------------------------|
G|-15-17b17-1515p14p13h14-----12p11p1013b12b11b10b11-12^^11^^-11h12-----|
D|----------------------------------------------------------------------|
A|----------------------------------------------------------------------|
E|-------------------------------------------------------------------|
e|-----------------|at the middle of the solo a second guitar comes in
B|-----------------|and it gets hard to hear so there might be some
G|12b12p10-9b8h9-|errors
D|--------------------|
A|--------------------|
E|-----------------|
Verse 2
F A F A Dm
Is there a reason for today
F A F A Dm
Is there a reason for today
F
Do you remember
Pre-Chorus 2
A E A
I can hear all the cries of the city
A E A
No time for pity for a growing tree
Order
Verse 1
Pre-chorus 1
Chorus
Verse 2
Pre-chorus 2
Chorus
solo
Verse 1
Pre-chorus 1
Chorus
| / slide up
| slide down
| h hammer-on
| p pull-off
| b bend
| ~ vibrato
| + harmonic
| x Mute note




Ваше мнение



Капча