#----------------------------------PLEASE NOTE---------------------------------#
#This file is the author's own work and represents their interpretation of the #
#song. You may only use this file for private study, scholarship, or research. #
#------------------------------------------------------------------------------#

The Solo To White Room
Cream
by Brian S.
The best rock song (next to stairway and dream on)

The Solo starts off with the same chords as the intro :

Gm.....F.....Dm......C

Gm.....F.....Dm......C...Am7

solo w/ killer wah wah (vox) :

v v v
E-------10---------10-----------10------------------------|
B----------13---------13-----------13---------------------|
G--12b~~~~~~~-12b~~~~~~~--12b~~~~~----12b~~-12-10-12b-r12-|
D---------------------------------------------------------|
A---------------------------------------------------------|
E---------------------------------------------------------|

E----------------------------------------------------|
B----------------13b~~~-13-13b~~~~--13b-13-----------|
G-10p12h10---------------------------------12p10~~~--|
D----------12~~~~------------------------------------|
A----------------------------------------------------|
E----------------------------------------------------|
repeat this a lot
E-------------|--------13-------|------------------------|
B-----------13|---13h15---13h15-|--15p13-13--------------|
G-12b-12~~~---|-----------------|----------12p10---------|
D-------------|-----------------|----------------12~~~---|
A-------------|-----------------|------------------------|
E-------------|-----------------|------------------------|

hmmmm......stay in the Dm Pentatonic and solo!




Ваше мнение



Капча